Guitaretab - guitar tabs
Song name
# A B C D E F G H I J K L M N O P Q R S T U V W X Y Z

Hudba Praha - Mama Tata tab

PLEASE NOTE
This file is the author's own work and represents their interpretation of the
song. You may only use this file for private study, scholarship, or research.
 
HUDBA PRAHA - MAMA TATA.   Tabbed by Jura Bartonek (Jago syn Jungle) from Czech
Republic. 23.12.05. (14:30-14:50)
This is my fourth tab. 
This is my best song from Hudba Praha and Hudba Praha is Best Rock group from
Czech republic :-)!!!Im sure that this is 100% right tab.
  
INTRO: and PRE-VERSE:
e[-----------------------------------------------------------------------]
B[-----------------------------------------------------------------------]
G[-5/7--7--5-7--10-7-5-7---5-7-7--5--7--10-12-10-------------------------]
D[-5/7--7--5-7--10-7-5-7---5-7-7--5--7--10-12-10-------------------------]
A[-3/5--5--3-5--8--5-3-5---3-5-5--3--5--8--10-8--------------------------]
E[-----------------------------------------------------------------------] 

  VERSE:                                                U UUUUU
e[---------------------------------------------------*-----------------------------------]
B[--------------------------------------7-7-7-7-7----*-----------------------------------]
G[-------7------5------3------5------7--7-7-7-7-7----*--7-7---5-5--3-3--5-5--7-7---------]
D[-------7------5------3------5------7--7-7-7-7-7----*--7-7---5-5--3-3--5-5--7-7---------]
A[---5-5-5--3-3-3--1-1-1--3-3-3--5-5-5--5-5-5-5-5----*--5-5---3-3--1-1--3-3--5-5---------]
E[---------------------------------------------------*-----------------------------------] 
[ Tab from: http://www.guitaretab.com/h/hudba-praha/66987.html ]
  CHORUS: MOJE MAMA....                              Half of CHORUS : ONLY 4:40 !!
e[------------------*-----------*-------------------*--10-10--6-6-8-8-10-10--]
B[------------------*-----------*-------------------*--10-10--6-6-8-8-10-10--]
G[--7-7-3-3-5-5-7-7-*--3-3-3-5--*-3-3-3-5-5-5-5-5-5-*------------------------]
D[--7-7-3-3-5-5-7-7-*--3-3-3-5--*-3-3-3-5-5-5-5-5-5-*------------------------]
A[--5-5-1-1-3-3-7-5-*--1-1-1-3--*-1-1-1-3-3-3-3-3-3-*------------------------]
E[------------------*-----------*-------------------*------------------------] 
                       3x 
   After CHORUS:
e[-----------------------------------------------------------------------]
B[---------8------------------------------8------------------------------]
G[--7--5-7---7-5----------3---------7-5-7---7-5--------------------------]  
D[---------------5--5-3-5---5-3-5---------------5------------------------]
A[-----------------------------------------------------------------------]
E[-----------------------------------------------------------------------] 

   END:
e[-----------------------------------------------------------------------]
B[---------8-------------------------------------------------------------]
G[--7--5-7--7-5----------------------------------------------------------]
D[--------------5--------------------------------------------------------]
A[-----------------------------------------------------------------------]
E[-----------------------------------------------------------------------] 


http://www.kandl.cz/hudbapraha/