Song name
# A B C D E F G H I J K L M N O P Q R S T U V W X Y Z

Hudson Taylor - Trouble Town tab

Trouble Town
Hudson Taylor



Rhythms, exact number of times to play each part and strumming patterns have
been omitted.  Just listen to the track and get a feel for it yourself.


Capo 5





Intro / First Verse
e|----------------------------------------------------------|
B|----------------------------------------------------------|
G|-----2---2------2---2------4---4-----2---2----------------|
D|-----------------------------------0---0------------------|
A|---0---0------2---2------4---4----------------------------|
E|----------------------------------------------------------|



Where I sit and watch the flowers grow

e|--0---0----0---------0---0----0---------------------------------|
B|--3---5----0---------3---5----2---------------------------------|
G|--2---4----6---------2---4----2---------------------------------|
D|--4---6----7---------4---6----4---------------------------------|
A|--5---7----7---------5---7----0---------------------------------|
E|-----------5----------------------------------------------------|



Riff  (playing these as broken chords sounds pretty good)

e|----------------------------------------------------------|
B|--2----3----3---0-----------------------------------------|
G|--0----2----2---2-----------------------------------------|
D|--2----0----0---2-----------------------------------------|
A|--0----0----0---0-----------------------------------------|
E|-------2----1---------------------------------------------|



Verse (alternative. build up the dynamics)
e|----------------------------------------------------------|
B|--0---0----0----0-----------------------------------------|
G|--2---2----4----2-----------------------------------------|
D|--2---0----0----0-----------------------------------------|
A|--0---2----4----0-----------------------------------------|
E|----------------2-----------------------------------------|




LYRICS


Troubles find their way home
What goes up must come down
Thoughts will always be with me
All the way to troubled town

Where I sit and watch the flowers grow
When I have nowhere else to go

Words can show their face here
And lie down next to me
My thoughts will always be here
All the way to troubled street

Where I people watch and write it down
Where I'm the only man in town
Where I sit and watch those flowers grow
When I have nowhere else to go

I'll find my way
I'll find my calling
My way to be proud
In Trouble Town (x4)

Where I people watch and write it down
Where I'm the only man in town
Where I sit and watch those flowers grow
When I have nowhere else to go 
Tap to rate this tab
# A B C D E F G H I J K L M N O P Q R S T U V W X Y Z