Song name
# A B C D E F G H I J K L M N O P Q R S T U V W X Y Z

Huey Lewis And The News - Heart And Soul tab

e-------------------------------------------------------|
B-------------------------------------------------------|
G-----0-------------------------------------------------|
D----2--------2-------------0---------------------------|
A-3-3---0-0-3-----0-3-----2-----------------------------|
E--------------1-1----3-3-------------------------------|

e-------------------------------------------------------|
B-------------------------------------------------------|
G---5-5-5---5-4-2-4-5-7--9-9-9~~-9-7-5-7-9-10--12---5---|
D-------------------------------------------------------|
A-------------------------------------------------------|
E-------------------------------------------------------|

e-------------------------------------------------------|
B-------------------------------------------------------|
G14-12-10-9-7-5-4-2-0---2-0-2-4-5-7---------------------|
D---------------------2---------------------------------|
A-------------------------------------------------------|
E-------------------------------------------------------|
Tap to rate this tab
 
# A B C D E F G H I J K L M N O P Q R S T U V W X Y Z