Song name
# A B C D E F G H I J K L M N O P Q R S T U V W X Y Z

Huey Lewis And The News - If This Is It tab

Help us improve GuitareTab! Take a short survey!
"If This Is It"
written by Colla/Lewis
recorded by Huey Lewis & the News
from the album SPORTS, 1983
Chrysalis Records; NY, NY 10022

Transcribed here by Ted Corby
tedcorby@yahoo.com

Here is the guitar intro for the song.  I think that this is pretty close to what
Chris Hayes played on the record.  He's a tremendous guitar player, and I hope to
see more of his stuff (huey lewis & the news) tabbed here on the net.  Please
understand that I didn't make an effort to show timing in any way, but if you
know the song and the lick then you'll be ok. 

-------------------------------------------------------------------------------
			     IF THIS IS IT--huey lewis and the news
-------------------------------------------------------------------------------


Tuning:standard

e|---------|--------------------------|---------------------------------|
B|---------|--12----------------------|---------------------------------|
G|--7/-12--|------14--12--14----------|---------------------------------|
D|--7/-----|------------------16--12--|--14--15--15--14--14--12--12-----|
A|---------|--------------------------|---------------------------------|
E|---------|--------------------------|---------------------------------|

e|----------------------|----------------------|------------------------|
B|----------------------|----------------------|--12--13--15------------|
G|-------------------12-|--14------12--14--12--|--------------12--------|
D|--9h-10h-12--13/14----|------14--------------|------------------------|
A|----------------------|----------------------|------------------------|
E|----------------------|----------------------|------------------------|

e|-------------------------|--------------------------------------------|
B|--12------------------15-|---17---18---18---17---17---15---15---------|
G|------14--12--14--14-----|--------------------------------------------|
D|-------------------------|--------------------------------------------|
A|-------------------------|--------------------------------------------|
E|-------------------------|--------------------------------------------|

e|-----------------------------|----------------------------------------|
B|--12---13---15---12----------|----------------------------------------|
G|---------------------12------|----------------12------14------12------|
D|-------------------------12--|--12---13---14------14------14----------|
A|-----------------------------|----------------------------------------|
E|-----------------------------|----------------------------------------|
Related for If This Is It tab