Song name
# A B C D E F G H I J K L M N O P Q R S T U V W X Y Z

Hugh Grant - Way Back Into Love tab

This is my first tab...bare with me...I'm just a beginner...I find it hard to follow the 
versions of the song's intro...especially coz I am using the chords with the capo on 
3rd fret..so I decided to create one with the capo...comment and rate!!

capo on 3rd Fret

Intro:
E|---0-2-3-2-------------|---0-2-3-2-----0-0----|-0----------------|
B|-3-------------3-3-----|-3--------------------|---3--------------|
G|-----------4-4---------|-----------4-4--------|-----5-4---2------|
D|-----------------------|----------------------|---------5--------|
A|-----------------------|----------------------|------------------|
E|-----------------------|----------------------|------------------|


E|-0-0-0-0------------------|
B|---------3----------------|
G|-----------5-4-2-----2----|
D|-----------------5-5------|
A|--------------------------|
E|--------------------------|
Tap to rate this tab
 
# A B C D E F G H I J K L M N O P Q R S T U V W X Y Z