Song name
# A B C D E F G H I J K L M N O P Q R S T U V W X Y Z

Hugh Grant - Way Back Into Love tab

Hugh Grant And Hayley Bennet
Way Back Into Love
Music And Lyrics Soundtrack
2006
Submitted by: paramore_fans@yahoo.com

Key: Bb

Tuning: Standard EADGBe

Chords used:
Bb -   x13331
Gm -   355333
Eb -   x68886
Cm -   x35543
F -    133211
Bb/G - x587xx


Intro: Bb-Gm-Bb-Gm-Cm-F-Cm-F

Piano:
e|-----5-6-5------------------5-6-5------------|
B|-6-8--------6----6--6---6-8--------6----8--8-|
G|--------------7----------------------7-------|
D|---------------------------------------------|
A|---------------------------------------------|
E|---------------------------------------------|

e|----------------------------------------|
B|-8-8-6----------8-8-8-8--6--------------|
G|-------8-7--5--------------8-7--5-------|
D|-----------------------------------7--8-|
A|----------------------------------------|
E|----------------------------------------|


Verse 1: Hayley
Bb                        Gm
  I've been living with a shadow overhead
Bb		            Gm
  I've been sleeping with a cloud above my bed
Cm                     F
  I've been lonely for so long
Cm                          F
Trapped in the past, I just can't seem to move on


Verse 2: Hugh
Bb                        Gm
  I've been hiding all my hopes and dreams away
Bb                    Gm
  Just in case I ever need them again someday
Cm                   F
  I've been setting aside time
   Cm                          F
To clear a little space in the corners of my mind


Chorus: Both
Bb              Gm           Eb            Bb
  All I want to do is find a way back into love
Bb                Gm                Eb            Bb
  I can't make it through without a way back into love
   F    Eb F
Oh oh oh


Verse 3: Hayley
Bb                            Gm
  I've been watching but the stars refuse to shine
Bb                          Gm
  I've been searching but I just don't see the signs
Cm                 F
  I know that it's out there
        Cm                      F
There's got to be something for my soul somewhere


Verse 4: Hugh
Bb                          Gm
  I've been looking for someone to shed some light
Bb                     Cm
  Not somebody just to Get me through the night
Cm                   F
  I could use some direction
Cm                F
  And I'm open to your suggestions


Chorus: hugh
Bb              Gm           Eb            Bb
  All I want to do is find a way back into love
Bb                Gm                Eb            Bb
  I can't make it through without a way back into love
         F
And if I open my heart again
I guess I'm hoping you'll be there for me in the end


Lead solo: Bb-Gm-Bb-Gm-Cm-F-Cm-F

Lead:
e|-----6-----6-----8-----6-----6---|
B|---7-----7-----7-----7-----7---7-|
G|-7-----7-----7-----7-----7-------|
D|---------------------------------| x2
A|---------------------------------|
E|---------------------------------|

e|----10-------11-------10-------------------------|
B|-------11-------11-------11----10-11-13-11-10----|
G|-10-------10-------10-------10----------------10-|
D|-------------------------------------------------|  x2
A|-------------------------------------------------|
E|-------------------------------------------------|

Verse 5: Hayley
Bb                         Gm
  There are moments when I don't know if it's real
Bb              Gm
  Or if anybody feels the way I feel
Cm            F
  I need inspiration
Cm                 F(hold)
Not just another negotiation


Chorus: Both
Bb              Gm           Eb            Bb
  All I want to do is find a way back into love
Bb                Gm                Eb            Bb
  I can't make it through without a way back into love
         F
And if I open my heart to you
           Bb/D
I'm hoping you shall be there to do
           Cm
And if you help me to shine again
  F
I know that I'll be there for you til the end


(Repeat Lead solo twice and intro)
Tap to rate this tab
# A B C D E F G H I J K L M N O P Q R S T U V W X Y Z