Guitaretab - guitar tabs
Song name
# A B C D E F G H I J K L M N O P Q R S T U V W X Y Z

Hugh Laurie - House Blues tab

Artist: Hugh Laurie
Song: Unknown (House Blues xD)
Tabber: Tye1989
[ Tab from: http://www.guitaretab.com/h/hugh-laurie/175563.html ]
House got the blues.
I really like this little peice, I'm pretty sure Hugh Laurie wrote it, he certainly 
it, something in the back of my mind is saying House Season 3 Episode 6 but I can't swear to 
I know it was a house thing though.
Pretty sure this is right, even if it's not it sounds good xD
Not to sure on the D chord, I think he uses a varitation but I can't figure it out.
Any comments, corrections or critisicm can go in comments or to Masamune12003@gmail.com

----------------------------5-----3---2-------------|
----------------------------5-----3---3-------------|
-----7-9fb-7----------------6-----4---2-----7-9fb-7-|
-7h9---------9-/9-7---------7-----5-0-07h9---------|
--------------------9-7-5---7--5--5-----------------|
--------------------------5-5-3-3-3-----------------|

-5-----3---2-|
-5-----3---3-|
-6-----4---2-|
-7-----5-0-0-|
-7--5--5-----|
-5-3-3-3-----|

Cheers!
Tye1989
Related for House Blues tab