Song name
# A B C D E F G H I J K L M N O P Q R S T U V W X Y Z

Hughes Turner Project - You Cant Stop Rock N Roll tab

-------------------------------------------------------------------------------
		    You Can't Stop Rock'n'Roll - The Hughes-Turner Project
-------------------------------------------------------------------------------
Tabbed by: Andy (yalaki)
Email: yalaki@hotmail.com

Official Glenn Hughes Website: http://www.glennhughes.com
Official Joe Lynn Turner Wesite: http://www.joelynnturner.com/

This is cool song from Glenn Hughes and Joe Lynn Turner's first joint album, HTP.
The intro riff (also in chorus) is very fun to play, but the rest is a bit awkward.

Keep an ear of your own out during the fills in the churuses
because what I had trouble tabbing them.
They all seemed to be based around the Eb minor pentatonic.

Any corrections please get in touch at the email above!


Tuning: D#

******
Intro:
******
						Play 3 times
d#|----------------------------|----------------------------|
Bb|o---------------------------|---------------------------o|
F#|----------------------------|----------------------------|
C#|-----------5----------------|-------------5--------------|
Ab|o--------5---7--7-5---------|---------5-7----5-5--------o|
D#|--0--5-7------------7-5-3---|--0--5-7-------------7-5-3--|


d#|----------------------------|-----------------------------------------|
Bb|----------------------------|-----------------------------------------|
F#|----------------------------|-----------------------------------------|
C#|-----------5----------------|-------------5---------------------------|
Ab|---------5---7--7-5---------|---------5-7----5-5----------------------|
D#|--0--5-7------------7-5-3---|--0--5-7-------------7-5-3-5--5-7-5-3-0--|

********
Verse 1:
********

"Kicked to the gutter, Push to the side..."

d#|-------------------------------------|
Bb|-------------------------------------|
F#|-----/2----4----------/4---6---------|
C#|-----/4----2----4-----/5---4---5-----|
Ab|----------------5--------------7-----|
D#|-------------------------------------|

"Feels like (we're) hanging by the fringe..."

d#|-------------------------------------|
Bb|-------------------------------------|
F#|-----/2---4--2--2--------------------|
C#|-----/4---2--4--4----4---4---5-------|
Ab|----------------5----5---5---7-------|
D#|-------------------------------------|


"Burnt down and battered, Fight to stay alive..."

d#|-------------------------------------|
Bb|-------------------------------------|
F#|-----/2----4----------/4---6---------|
C#|-----/4----2----4-----/5---4---5-----|
Ab|----------------5--------------7-----|
D#|-------------------------------------|

"Out in the cold and left for dead..."

d#|-------------------------------------|
Bb|-------------------------------------|
F#|-----/2---4--2--2----2---2-----------|
C#|-----/4---2--4--4----4---4---5-------|
Ab|----------------5----5---5---7-------|
D#|-------------------------------------|

"Keep on believing We got the faith..."

d#|-------------------------------------|
Bb|-------------------------------------|
F#|-----/2----4----------/4---6---------|
C#|-----/4----2----4-----/5---4---5-----|
Ab|----------------5--------------7-----|
D#|-------------------------------------|

"So tired of being pushed around..."

d#|-------------------------------------|
Bb|-------------------------------------|
F#|-----/2---4--2--2--------------------|
C#|-----/4---2--4--4----4---4---5-------|
Ab|----------------5----5---5---7-------|
D#|-------------------------------------|

"We live forever, Make no mistake..."

d#|-------------------------------------|
Bb|-------------------------------------|
F#|-----/2----4----------/4---6---------|
C#|-----/4----2----4-----/5---4---5-----|
Ab|----------------5--------------7-----|
D#|-------------------------------------|

"And nobody gonna take us down..."

d#|-------------------------------------|
Bb|-------------------------------------|
F#|-----/2---4--2--2--------------------|
C#|-----/4---2--4--4----4---4-----------|
Ab|----------------5----5---5-----------|
D#|-------------------------------------|

*******
Chorus:
*******

"We want the world to know, we're right where we belong..."

d#|---3------1------0---------0h3p0---0-------|
Bb|---3------1------0---0-3-0-------0---0-----|
F#|---4------2------0---------------------0---|
C#|---5------3------2-------------------------|
Ab|-------------------------------------------|
D#|-------------------------------------------|

d#|---3------1------0-------7-7-7-7-7-7-7-7-7-|
Bb|---3------1------0-------7-7-7-7-7-7-7-7-7-|
F#|---4------2------0-------4-4-4-4-4-4-4-4-4-|
C#|---5------3------2-------------------------|
Ab|-------------------------------------------|
D#|-------------------------------------------|


"You can't stop rock n' roll..."
						Play 3 times
d#|----------------------------|----------------------------|
Bb|o---------------------------|---------------------------o|
F#|----------------------------|----------------------------|
C#|-----------5----------------|-------------5--------------|
Ab|o--------5---7--7-5---------|---------5-7----5-5--------o|
D#|--0--5-7------------7-5-3---|--0--5-7-------------7-5-3--|


d#|----------------------------|-----------------------------------------|
Bb|----------------------------|-----------------------------------------|
F#|----------------------------|-----------------------------------------|
C#|-----------5----------------|-------------5---------------------------|
Ab|---------5---7--7-5---------|---------5-7----5-5----------------------|
D#|--0--5-7------------7-5-3---|--0--5-7-------------7-5-3-5--5-7-5-3-0--|

********
Verse 2:
********

"Blood in the water, no turning back..."

d#|-------------------------------------|
Bb|-------------------------------------|
F#|-----/2----4----------/4---6---------|
C#|-----/4----2----4-----/5---4---5-----|
Ab|----------------5--------------7-----|
D#|-------------------------------------|

"We put ourselves out on the line..."

d#|-------------------------------------|
Bb|-------------------------------------|
F#|-----/2---4--2--2--------------------|
C#|-----/4---2--4--4----4---4---5-------|
Ab|----------------5----5---5---7-------|
D#|-------------------------------------|


"You know we oughtta Get it back on the track..."

d#|-------------------------------------|
Bb|-------------------------------------|
F#|-----/2----4----------/4---6---------|
C#|-----/4----2----4-----/5---4---5-----|
Ab|----------------5--------------7-----|
D#|-------------------------------------|

"You know we gotta let it shine..."

d#|-------------------------------------|
Bb|-------------------------------------|
F#|-----/2---4--2--2--------------------|
C#|-----/4---2--4--4----4---4-----------|
Ab|----------------5----5---5-----------|
D#|-------------------------------------|

*******
Chorus:
*******

"We want the world to know, we're right where we belong..."

d#|---3------1------0----3-0-3p0--------------|
Bb|---3------1------0------------3p0-3--------|
F#|---4------2------0------------------2--0---|
C#|---5------3------2-------------------------|
Ab|-------------------------------------------|
D#|-------------------------------------------|

d#|---3------1------0-------7-7-7-7-7-7-7-7-7-|
Bb|---3------1------0-------7-7-7-7-7-7-7-7-7-|
F#|---4------2------0-------4-4-4-4-4-4-4-4-4-|
C#|---5------3------2-------------------------|
Ab|-------------------------------------------|
D#|-------------------------------------------|

"You can't stop rock n' roll..."
						Play 3 times
d#|----------------------------|----------------------------|
Bb|o---------------------------|---------------------------o|
F#|----------------------------|----------------------------|
C#|-----------5----------------|-------------5--------------|
Ab|o--------5---7--7-5---------|---------5-7----5-5--------o|
D#|--0--5-7------------7-5-3---|--0--5-7-------------7-5-3--|


d#|----------------------------|-----------------------------------------|
Bb|----------------------------|-----------------------------------------|
F#|----------------------------|-----------------------------------------|
C#|-----------5----------------|-------------5---------------------------|
Ab|---------5---7--7-5---------|---------5-7----5-5----------------------|
D#|--0--5-7------------7-5-3---|--0--5-7-------------7-5-3-5--5-7-5-3-0--|


************
Guitar Solo:
************
								Play 3 times
d#|---------------------------------------------------------------------------|
Bb|o-------------------------------------------------------------------------o|
F#|---------------------------------------------------------------------------|
C#|---5-5-5-5-5-5-5-5-5-5-5-5-5-5-5-5-4-4-4-4-4-4-4-4-4-4-4-4-4-4-4-4---------|
Ab|o--3-3-3-3-3-3-3-3-3-3-3-3-3-3-3-3-2-2-2-2-2-2-2-2-2-2-2-2-2-2-2-2--------o|
D#|---------------------------------------------------------------------------|

d#|---------------------------------------------------------------------------|
Bb|---------------------------------------------------------------------------|
F#|---------------------------------------------------------------------------|
C#|---5-5-5-5-5-5-5-5-5-5-5-5-5-5-5-5-7-7-7-7-7-7-7-7-7-7-7-7-7-7-7-7---------|
Ab|---3-3-3-3-3-3-3-3-3-3-3-3-3-3-3-3-5-5-5-5-5-5-5-5-5-5-5-5-5-5-5-5---------|
D#|---------------------------------------------------------------------------|

*******
Chorus:
*******

"We want the world to know, we're right where we belong..."

The fills differ each repeat (and these will be very inaccurate, use as a guide).
Also play more Bb5 chords at the end of the second repeat.

d#|---3------1------0----3-0-3p0--------------|
Bb|o--3------1------0------------3p0-3--------|
F#|---4------2------0------------------2--0---|
C#|---5------3------2-------------------------|
Ab|o------------------------------------------|
D#|-------------------------------------------|

d#|---3------1--3-1-3------0-------7-7-7-7-7-7-7-7-7---|
Bb|---3------1--------3----0-------7-7-7-7-7-7-7-7-7--o|
F#|---4------2----------2--0-------4-4-4-4-4-4-4-4-4---|
C#|---5------3-------------2---------------------------|
Ab|---------------------------------------------------o|
D#|----------------------------------------------------|

"You can't stop rock n' roll..."
						Play 7 times
d#|----------------------------|----------------------------|
Bb|o---------------------------|---------------------------o|
F#|----------------------------|----------------------------|
C#|-----------5----------------|-------------5--------------|
Ab|o--------5---7--7-5---------|---------5-7----5-5--------o|
D#|--0--5-7------------7-5-3---|--0--5-7-------------7-5-3--|


d#|----------------------------|
Bb|----------------------------|
F#|----------------------------|
C#|-----------5----------------|
Ab|---------5---7--7-5---------|
D#|--0--5-7------------7-5-3---|

d#|---------------------------------------------------------------------------|
Bb|---------------------------------------------------------------------------|
F#|---------------------------------------------------------------------------|
C#|-------------5-------------------------------------------------------------|
Ab|---------5-7----5-5--------------------------------------------------------|
D#|--0--5-7-------------7-5-3-5--5-7-5-3-5--5-7-5-3-0-0---0-0-0----0-0-0--0-0-|




| /  slide up
| \  slide down
| h  hammer-on
| p  pull-off
| ~  vibrato
| +  harmonic
| x  Mute note
| b  Bend note
| r  Release bend
| pb Prebend note
===============================================================================
Tap to rate this tab
 
# A B C D E F G H I J K L M N O P Q R S T U V W X Y Z