Song name
# A B C D E F G H I J K L M N O P Q R S T U V W X Y Z

Hugo - Bread And Butter tab

-------------------------------------------------------------------------------
			     BREAD AND BUTTER - Hugo
-------------------------------------------------------------------------------
Tabbed by: 1Derr
Email:

Tuning: Standard

This is a version that will work for one guitar.  If you listen closely, youll 
notice that there are actually two guitars on the recording.  One pretty much 
sticks with the first measure riff through the whole thing (even under the 
e|---------|
B|-0-2-0-2-|
G|-0-2-0-2-|
D|-0-2-0-2-|
A|---------|
E|---------| riff)

INTRO:

e|------------------------------------8--5-|---------------------------8--5--|
B|----------------------0-2-0-2-------8--5-|-----------------0-2-0-2---8--5--|
G|----2-----------------0-2-0-2------------|-----2-------2---0-2-0-2---------|x2
D|--2---2-0h2-----------0-2-0-2------------|-0h2---2-0h2-----0-2-0-2---------|
A|------------0----------------------------|---------------------------------|
E|-----------------------------------------|---------------------------------|

VERSE 1:

e|--------------------------------8--5-|-------------------------------------|
B|------------------0-2-0-2-------8--5-|---------------------0-2-0-2---------|
G|----2-------------0-2-0-2------------|-----2-------2-------0-2-0-2---------|x2
D|--2---2-0h2-------0-2-0-2------------|-0h2---2-0h2---------0-2-0-2---------|
A|------------0------------------------|-------------------------------------|
E|-------------------------------------|-------------------------------------|
    GUITAR 2: (or you could just play this on guitar 1)
e|---------------------------------------------------------------5-5-3p0-----|
B|-----------------------------------------------------------------------3p1-|
G|---------------------------------------------------------------------------|
D|---------------------------------------------------------------------------|
A|---------------------------------------------------------------------------|
E|---------------------------------------------------------------------------|


CHORUS:

e|----5---5---5---5-5-5-----5---5---5---5-5-5--|
B|----3---3---2---2-2-2-----3---3---2---2-2-2--|
G|----0---0---2---2-2-2-----0---0---2---2-2-2--|x4
D|----0---0---2---2-2-2-----0---0---2---2-2-2--|
A|----3---0---0---0-0-0-----3---0---0---0-0-0--|
E|---------------------------------------------|

VERSE 2:

e|------------------------------8-5------------------------------------------|
B|---------------------0-2-0-2--8-5------------------------------------------|
G|---------2-----------0-2-0-2-----------------------------------------------|
D|----0h2----2-0h2-----0-2-0-2-----------------------------------------------|
A|--0--------------0---------------------------------------------------------|
E|---------------------------------------------------------------------------|

e|---------------------------------------------------------------------------|
B|---------------------------------------------------------------------------|
G|------2--------------2---------------2-------2-------2-------------2-------|
D|--0h2---2-0h2--2-0h2---2-0h2---2-0h2---2-0h2---2-0h2---2-0h2---0h2---2-0h2-|
A|0-------------0---------------0------------------------------0------------0|
E|---------------------------------------------------------------------------|

e|---------------------------------------------------------------------------|
B|---------------------------------------------------------------------------|
G|------2--------------2-------2-------2-------2-------2-------2-------2-----|
D|2-0h2---2-0h2--2-0h2---2-0h2---2-0h2---2-0h2---2-0h2---2-0h2---2-0h2---2-0h2|
A|--------------0------------------------------------------------------------|
E|---------------------------------------------------------------------------|

CHORUS:

e|----5---5---5---5-5-5-----5---5---5---5-5-5--|
B|----3---3---2---2-2-2-----3---3---2---2-2-2--|
G|----0---0---2---2-2-2-----0---0---2---2-2-2--|x4
D|----0---0---2---2-2-2-----0---0---2---2-2-2--|
A|----3---0---0---0-0-0-----3---0---0---0-0-0--|
E|---------------------------------------------|


VERSE 2:

e|------------------------------8-5------------------------------------------|
B|---------------------0-2-0-2--8-5------------------------------------------|
G|---------2-----------0-2-0-2------------2--------------2--------------2----|
D|----0h2----2-0h2-----0-2-0-2--------0h2---2-0h2--2-0h2---2-0h2--2-0h2---2--|
A|--0--------------0----------------0-------------0--------------0-----------|
E|---------------------------------------------------------------------------|


e|---------------------------------------------------------------------------|
B|---------------------------------------------------------------------------|
G|----2-------2---------------2--------------2---------------2-------2-------|
D|0h2---2-0h2---2-0h2---2-0h2---2-0h2--2-0h2---2-0h2---2-0h2---2-0h2---2-0h2-|
A|--------------------0---------------0---------------0----------------------|
E|---------------------------------------------------------------------------|

e|---------------------------------------------------------------------------|
B|---------------------------------------------------------------------------|
G|-2---------------2-------2-------2-----------------------------------------|
D|---2-0h2---2-0h2---2-0h2---2-0h2-------------------------------------------|
A|---------0-----------------------------------------------------------------|
E|---------------------------------------------------------------------------|

CHORUS:

e|----5---5---5---5-5-5-----5---5---5---5-5-5--|
B|----3---3---2---2-2-2-----3---3---2---2-2-2--|
G|----0---0---2---2-2-2-----0---0---2---2-2-2--|x4
D|----0---0---2---2-2-2-----0---0---2---2-2-2--|
A|----3---0---0---0-0-0-----3---0---0---0-0-0--|
E|---------------------------------------------|

OUTRO:

e|---------------------------------8--5-|-------------------------------8--5-|
B|--------------------0-2-0-2------8--5-|---------------------0-2-0-2---8--5-|
G|-------2------------0-2-0-2-----------|---------2-------2---0-2-0-2--------|x2
D|---0h2---2-0h2------0-2-0-2-----------|--2-0h2----2-0h2-----0-2-0-2--------|
A|-0-------------0----------------------|-0----------------------------------|
E|--------------------------------------|------------------------------------|

e|-------------------------------------|
B|-------------------------------------|
G|-------2-----------------------------|
D|---0h2---2-0h2-----------------------|
A|-0-------------0---------------------|
E|-------------------------------------|



************************************

| /   slide up
| \   slide down
| h   hammer-on
| p   pull-off
| ~   vibrato
| +   harmonic
| x   Mute note
| b   Bend
| pb  Pre-bend
| br  Bend release
| pbr Pre-bend release
| brb Bend release bend

************************************
Tap to rate this tab
 
# A B C D E F G H I J K L M N O P Q R S T U V W X Y Z