Song name
# A B C D E F G H I J K L M N O P Q R S T U V W X Y Z

Hugo - 99 Problems tab

Artist: Hugo
Song: 99 Problems
Tabbed by shoe7ess (ps9billy@yahoo.com)

This is my adaptation for 99 Problems by Hugo. I finger pick the Introduction/
Bridge with the pattern shown below, but you can adapt it with another pattern as 
long as you keep the chord structure.  This is the second tab I've ever made, and 
it could probably be simplified, so any feedback and/or constructive criticism is 
welcome :)

x - Palm Mute
~ - Let Ring

                ||Intro/Bridge||

   (Eadd9+)  (E7)                          (G)(E)
e|---3--0------------0------------0-----------------|
B|-0----0------3------------3------------0--0--0----|
G|-1---------1---1--------1---1--------1----0--1----|
D|-----------------2------------2-------------------|
A|--------------------------------------------------|
E|-0-------0------------0------------0------3--0----|


    ||Verse/Chorus||

   (E)            (Eadd9+)
e|------------------------|
B|------------------------|
G|-1----1----1----1--1----|
D|-2----2----2----2--2----|
A|-2----2----2----2--2----|
E|-0----0----0----0--3----|
   x    x    x    x  x


||Refrain/Outro||

  (D)   (A)
e|-2~----0~----|
B|-3~----2~----|
G|-2~----2~----|
D|-0~----2~----|
A|-------------|
E|-------------|

Structure:

[Intro x2]
[Verse x6]
[Chorus x2]
[Refrain]
[Bridge x2]
[Verse x6]
[Silent Chorus] (Do Not Play This Part)
[Bridge x4]
[Refrain]
[Bridge x2]
[Outro] 
(You can end on either an E or an E7 both sound good)

       ||Lyrics||

If you're havin' girl problems,
I feel bad for you son.
I got 99 problems,
But a bitch ain't one.

[Intro]

[Verse]
Tip my hat to the sun in the west,
Feel the beat right in my chest.
At the crossroads a second time,
Make the devil change his mind.
Its a pound of flesh but its really a ton,
99 problems and a bitch ainít one.

[Chorus]
If youíre haviní girl problems,
I feel bad for you son.
I got 99 problems,
But a bitch ain't one.

[Refrain]
99 problems,
But a bitch ain't one.

[Bridge]

[Verse]
Like broken glass under my feet,
I could lose my mind in this heat.
Lookiní for the prize but I donít want blood,
I order one drink then I drink the flood.
Well, you can come inside, but your friends canít come,
99 problems and a bitch ainít one.

[Silent Chorus]
If youíre haviní girl problems,
I feel bad for you son.
99 problems,
And a bitch ain't one.

[Bridge]
I got 99,
99...
99...
99...

[Refrain]
99 problems,
But a bitch ain't one.

[Bridge]
99...

[Outro]
99 problems,
But a bitch ain't one.
Tap to rate this tab
 
# A B C D E F G H I J K L M N O P Q R S T U V W X Y Z