Song name
# A B C D E F G H I J K L M N O P Q R S T U V W X Y Z

Hugo - Bread And Butter tab

                           --------------------------
                          |                          |
                          |     Bread and Butter     |
                          |           Hugo           |
                          |                          |
                           --------------------------

Standard tuning

h - hammer on
x - strum while string is muted

The song just repeats through the verse and chorus a few times. He varies the 
licks he plays a bit throughout the song.


VERSE Guitar 1:

E---------------------------------------------------------|
B---------------------------------------------------------|
G-------------0h2----------2----------------0h2-----------|
D-----2--0h2-------2--0h2-----------2--0h2-------2--0-----|
A--0-----------------------------0---------------------3--|
E---------------------------------------------------------|


The second guitar plays variations of this in the background

VERSE Guitar 2:

E---------------------8----5---------------------8-----5--|
B---------------------8----5---------------------8-----5--|
G-----0--2--0--2--------------------0--2--0--2------------|
D-----0--2--0--2--------------------0--2--0--2------------|
A-----0--2--0--2--------------------0--2--0--2------------|
E---------------------------------------------------------|


CHORUS:

E-3-x-x-5-x-x-5---5-5--5-5-5-5---3-x-x-5-x-x-5---5-5--5-5-5-5--|
B-5-x-x-7-x-x-5---5-5--5-5-5-5---5-x-x-7-x-x-5---5-5--5-5-5-5--|
G-5-x-x-7-x-x-6---6-6--6-6-6-6---5-x-x-7-x-x-6---6-6--6-6-6-6--|
D-5-x-x-7-x-x-7---7-7--7-7-7-7---5-x-x-7-x-x-7---7-7--7-7-7-7--|
A-3-x-x-5-x-x-7---7-7--7-7-7-7---3-x-x-5-x-x-7---7-7--7-7-7-7--|
E-------------5---5-5--5-5-5-5---------------5---5-5--5-5-5-5--|
Tap to rate this tab
# A B C D E F G H I J K L M N O P Q R S T U V W X Y Z