Song name
# A B C D E F G H I J K L M N O P Q R S T U V W X Y Z

Hujan - Mencari Konklusi tab

e----------------------------------------------------------------|
b---2-7\6-5\7-5\8/7-7\9------------------------------------------|
g---3-7\6-5\7-5\8/7-7\9-13h16-13\11h13\9h11----------------------|
A-2-4-7\6-5\7-5\8/7-7\9---------------------9h11-----------------|
D-2---------------------------------------------9h11-9\13/7\8/7b-|
E-2--------------------------------------------------------------|

e---------------------------------------14\16\18\19-20-21-|
b----16-13b-------------------17b-17-16-14\16\18\19-20-21-|
g-13-13--------------12-14-15-17b-17-16-14\16\18\19-20-21-|
D-14-14-----13-15-16----------17b-17-16-------------------|
A-15-15---------------------------------------------------|
E---------------------------------------------------------|


aqu x tau aR toL ke x niE.kaLo salah pandai2 aR carik sendiri..!!:D
Tap to rate this tab
# A B C D E F G H I J K L M N O P Q R S T U V W X Y Z