Song name
# A B C D E F G H I J K L M N O P Q R S T U V W X Y Z

Hujan - Romantik tab

klau salah pndai2 btol kn..


|------10------------------|
|---------10------8--------|
|------------10-7---10-9-5-|
|--------------------------|
|--------------------------|
|--------------------------|x2

|------------------|
|------1---6-3-1-3-|
|--0-2---2---------|
|------------------|
|------------------|
|------------------|x2
Tap to rate this tab
 
# A B C D E F G H I J K L M N O P Q R S T U V W X Y Z