Song name
# A B C D E F G H I J K L M N O P Q R S T U V W X Y Z

Hujan - Jiwa Kelajuan tab

Jiwa Kelajuan solo by Anwar

Key : E minor / G major
Effects : Overdrive + Delay


|----------15---------15----------------------------------|
|---15b(17)- 15b(17)----15b-12-13--12---------------------|
|------------------------------------14--12-14-12-11-11~\-|
|---------------------------------------------------------|
|---------------------------------------------------------|
|---------------------------------------------------------|



|----------------------12-14-15-15-14---14-12-14---14-15-17-14------------|
|-------------12-13-15-----------------------------------------15-12~-----|
|----11-12-14-------------------------------------------------------------|
|--14---------------------------------------------------------------------|
|-------------------------------------------------------------------------|
|-------------------------------------------------------------------------|



|------------------------------------------12-14-15-14~---12-14-12-14-15-17---|
|--15-13-12-13-12-12--15-13-12-13~---13-15------------------------------------|
|-----------------------------------------------------------------------------|
|-----------------------------------------------------------------------------|
|-----------------------------------------------------------------------------|
|-----------------------------------------------------------------------------|



|---19-19-19-19-19-19-19-19+------------------------------|
|----------------------------17~~---20+-------------------|
|---------------------------------------------------------|
|---------------------------------------------------------|
|---------------------------------------------------------|
|---------------------------------------------------------|


transcribed with real scale key. kalau salah, http://www.formspring.me/anwarhusaini
Tap to rate this tab
 
# A B C D E F G H I J K L M N O P Q R S T U V W X Y Z