Hujan - Lonely Soldier Boy tab

LONELY SOLDIER BOY by HUJAN
Key C minor

*aku ni tak reti sebenarnya tulis tab XD
ini yang the bestest aku try. try samakan dgn lagu.

Tab legend :
s   - legato slide to (macam hammer-ons gitu ah)
h   - hammer-ons
p   - pull-offs
/   - slide in
\   - slide out (kalau nak matikan bunyi kasi sedap XD)
b   - bend one tone
r   - release from bend
br  - bend one tone and release
brb - bend release and bend (gaya macam vibrato tapi slow)
~   - vibrato
t   - tremolo picking (petik laju alternately tu >.< )

try la ya. aku tak pro buat tab.


[intro]


e | --------------------------------------------- |
B | ----------------------11---9--8h9p8h9p8------ |
G | --10s12---12--10--12---------------------10-- |
D | --------------------------------------------- |
A | --------------------------------------------- |
E | --------------------------------------------- |

e | ------------------------------------|-------- |
B | ------------------------------------|-------- |
G | --7-8-10-8\---3s10-8-10-5s11brb--\--|-------- |
D | ------------------------------------|-------- |
A | ------------------------------------|-------- |
E | ------------------------------------|-------- |

e | --------------------------------------------- |
B | ----------------------11---9--8h9p8h9p8------ |
G | --10s12---12--10--12---------------------10-- |
D | --------------------------------------------- |
A | --------------------------------------------- |
E | --------------------------------------------- |

e | ------------------------------------|-------- |
B | ------------------------------------|-------- |
G | --7-8-10-8\---3s10-8-10-7s12~\------|-------- |
D | ------------------------------------|-------- |
A | ------------------------------------|-------- |
E | ------------------------------------|-------- |

e | ---------------------------- | -------------- |
B | --11br-8-11---6b(8)rb(8)---- | -------------- |
G | ---------------------------- | -------------- |
D | ---------------------------- | -------------- |
A | ---------------------------- | -------------- |
E | ---------------------------- | -------------- |


[solo]
start from last chorus line.


e | --------------------------------------------- |
B | -4s13--11--13---4s4s15--13--15---4s16--15--16 |
G | --------------------------------------------- |
D | --------------------------------------------- |
A | --------------------------------------------- |
E | --------------------------------------------- |

e | ---------------|----------------------------- |
B | -18--16s20-----|----------------------------- |
G | ---------------|----------------------------- |
D | ---------------|----------------------------- |
A | ---------------|----------------------------- |
E | ---------------|----------------------------- |

e | --------------------18---16-15h16p15h16p15-13 |
B | --18b(20)---18br-16-------------------------- |
G | --------------------------------------------- |
D | --------------------------------------------- |
A | --------------------------------------------- |
E | --------------------------------------------- |

e | --10-11-13-11---13b(15)r--11-13-14b(16)------ |
B | --------------------------------------------- |
G | --------------------------------------------- |
D | --------------------------------------------- |
A | --------------------------------------------- |
E | --------------------------------------------- |

*t - tremolo picking (petik laju-laju tu la) lol

e | -t15---t13--/t18--t16-t15-t13-t10---|-------- |
B | ------------------------------------|-------- |
G | ------------------------------------|-------- |
D | ------------------------------------|-------- |
A | ------------------------------------|-------- |
E | ------------------------------------|-------- |

e | -11-13-11---\----18br-15-18---13brp11-13b(15) |
B | --------------------------------------------- |
G | --------------------------------------------- |
D | --------------------------------------------- |
A | --------------------------------------------- |
E | --------------------------------------------- |

e | --13br-------------|------------------------- |
B | -------13~~~\------|------------------------- |
G | -------------------|------------------------- |
D | -------------------|------------------------- |
A | -------------------|------------------------- |
E | -------------------|------------------------- |


Draft

e | --- |
B | --- |
G | --- |
D | --- |
A | --- |
E | --- |


anwarhusaini.blogspot
Tap to rate this tab
 
# A B C D E F G H I J K L M N O P Q R S T U V W X Y Z