Song name
# A B C D E F G H I J K L M N O P Q R S T U V W X Y Z

Hujan - Ku Mahu Kau Tahu tab

Mcm ni care nak maen die.. Ni tuk time verse 1 and 2 je k.. chorus die.. korg 
pandai2 la cari strum die..

    G        Cadd9       G       Em7     D
e|--3-3------3-3---------3-3-----3-3-----2-2---2--------------------------|
B|--3---3----3---3-------3---3---3---3---3---3----------------------------|
G|---------------------------------------2--------------------------------|
D|-----------2-------------------2----------------------------------------|
A|--2--------3-----------2-------2----------------------------------------|
E|--3--------------------3------------------------------------------------|

VERSE 1
G               Cadd9
Di sudut termenung jauh
G               Em7    D
Mengenangkan nasib kita
G               Cadd9
Kita miliki separuh
G               Em7      D
Berbentuk hati cinta namanya

Cadd9 Bm

chorus

Em        
Walau kau jauh
   Am       D
Ku sentiasa menunggumu
   Bm         Em       Am     D
Inginku imbas kembali memori
          Bm   Em
Walau kau jauh
   Am           D
Ku berjanji kan terus tunggu
   Bm     Em   
Dipisah lautan biru
   Am
Ku mahu kau tahu
   D                     G
Aku kan terus menunggu


sblum msok 2nd verse.. ade plucking ni lepas chord G last skali time chorus..

e|---3---3---3------------|
B|-----3------------------|
G|---------0--------------|
D|------------------------|
A|------------------------|
E|------------------------|

VERSE 2
G                         Cadd9
Jaga benar gambarku dalam telefon bimbitmu
G             Em7        D
Jangan pernah sekali kau buang
G             Cadd9         
Seperti cinta ini yang terbuku
G    Em7   D     Cadd9  Bm  
Akan bersemi jua

REPEAT CHORUS

ENDING
G   
Terus menunggu
Em7
Kita kan bersatu
Cadd9
Terus menunggu
D              G (ring......)
Ku mahu kau tahu
Tap to rate this tab
# A B C D E F G H I J K L M N O P Q R S T U V W X Y Z