Song name
# A B C D E F G H I J K L M N O P Q R S T U V W X Y Z

Hujan - Tunggu Sekejap tab

E|---3/5---2p0---2---2--------0-2-------------5----3--3--------3--3--------|
B|---------------2---0---2/3-------3--------3-4----5-------5---4--------4--|
G|2--------------2---2-------------2---4h3h4--4----4----4------4-----4-----|
D|---------------0---0-------------4---------------------------------------|
A|---------------------------------2---------------------------------------|
E|-------------------------------------------------0-----------0-----------|


E|-3--3---------------5/7--7--7--5--3----------------10------------------|
B|-3--------3----4----7/8--8--8--7--5--------8----------------7--8-------|
G|-4-----4-------2-------------------------------7-------7/9-------------|
D|---------------4-------------------------9-----------------------------|
A|---------------2----------------------7--------------------------------|
E|-0---------------------------------------------------------------------|


E|--------------10--9-----7h9p7--6--7-------------2------------2---------|
B|-----------8---------------------------------2------------2------------|
G|--------9---------------------------------3------------3---------------|
D|-----9-----------------------------------------------------------------|
A|-----------------------------------------------------------------------|
E|--9------------------------------------2------------0------------------|


E|----------------------------------------------------------------|
B|-----------4---5----7----7-----10-----10------7---6-------------|
G|--------4------5----5----5-----7------7-------6---6-------------|
D|-----4---------5----5----5-----7------7-------5---5-------------|
A|--6-------------------------------------------------------------|
E|---------------5----5--5----5--7---7------7---5---5-------------|


P.S:ade la bunyi sikit,tak lari jauh sangat.enjoy


farishabbo@gmail.com
Tap to rate this tab
 
# A B C D E F G H I J K L M N O P Q R S T U V W X Y Z