Song name
# A B C D E F G H I J K L M N O P Q R S T U V W X Y Z

Hujan - Tunggu Sekejap tab

   Tunggu...    sekejap...         Wahai kasih... Kerana    hujan
E|----------------------------9------------7---------------------------|
B|-------------------7--------10-----------7------------8----8-----8---|
G|-------------------6--------11-----------7------------9-------9--8---|
D|-------------------7--------12-----------9------------9--9-------9---|
A|-------------------5----------------------------------7----------7---|
E|---------------------------------------------------------------------|


   masih renyai            Tunggu sekejap...  Dalam pelukan  asma...
E|--------------------------------------------------------------2------|
B|----8-----8-----8-----7---------8-------------------5---------2------|
G|-------8--7--------7--8---------7-------------------4---------3------|
D|-9--------9--9--------7---------9-------------------5---------4------|
A|----------7---------------------7-------------------4----------------|
E|----------------------7----------------------------------------------|


     raku...   Jangan bimbang        Walaupun siang akan menjelma
E|---------------------------------------------------------------------|
B|---7---------7---------7-------7-----------------7-----------8-----8-|
G|---7---------8---------7-------8-----------------7-----------9-------|
D|---7---------7---------7-------7-----------------7-----------9--9----|
A|-------------------------------------------------------------7-------|
E|---7---------7---------7-------7-----------------7-------------------|



                              Malam ini...        Belum puas
E|------------------------------------9-----9-------------9----7-------|
B|-----8-----8-----8-----8------7-----9-----9-------------10---7-------|
G|--9--8--------8--7--------7---8-----10----10------------9----8-------|
D|-----9--9--------9--9---------7-----9-----9-------------11---7-------|
A|-----7-----------7------------------11----11------------9----9-------|
E|------------------------------7-----9-----9------------------7-------|



   ku bercumbu    Dengan dinda...      (start strumming until end...)
E|----------------7------5---------------------------------------------|
B|----------------8------5---------------------------------------------|
G|----------------7------6---------------------------------------------|
D|----------------9------5---------------------------------------------|
A|----------------7------7---------------------------------------------|
E|-----------------------5---------------------------------------------|



      Tunggu sekejap...   Wahai kasih... Tunggulah sampai hujan teduh
E|---------------5--------------------------------7---------7------7---|
B|---------------7--------------7-----------------8---------8------8---|
G|---------------6--------------7-----------------9---------8------7---|
D|---------------7--------------7-----------------9---------9------9---|
A|---------------5--------------------------------7---------7------7---|
E|------------------------------7--------------------------------------|



     Mari kudendang...   Jangan mengenang orang jauh...   Jangan pulang
E|-------------7----------------------------------9----------10----9----|
B|---7---------8----------------8-----------------11---------10----11---|
G|---8---------7----------------9-----------------9----------11----9----|
D|---7---------9----------------9-----------------11---------10----11---|
A|-------------7----------------------------------9----------12----9----|
E|---7--------------------------9----------------------------10---------|




    jangan tinggalkan Daku seorang...         Tunggu sekejap...
E|----7-----------------8----7-------7---5-------5-------7-----5-------|
B|----7-----------------8----7-------8---5-------7-------8-----5-------|
G|----8-----------------9----8-------7---6-------6-------7-----6-------|
D|----7-----------------8----7-------9---5-------7-------9-----5-------|
A|----9-----------------10---9-------7---7-------5-------7-----7-------|
E|----7-----------------8----7-----------5---------------------5-------|




    Tunggu...      kasihku...    Tunggu...       sekejap...
E|-----7-------5------7------------7-------5----------5------7---5------|
B|-----7-------5------7------------8-------5----------7------8---5------|
G|-----7-------6------7------------7-------6----------6------7---6------|
D|-----7-------5------6------------9-------5----------7------9---5------|
A|-----9-------7-------------------7-------7----------5------7---7------|
E|-----7-------5---------------------------5---------------------5------|





E|------5------7---5----------------------------------------|
B|------7------8---5----------------------------------------|
G|------6------7---6----------------------------------------|
D|------7------9---5----------------------------------------|
A|------5------7---7----------------------------------------|
E|-----------------5----------------------------------------|




P.S:Improvisation of the song by the late P. Ramlee 'Tunggu Sekejap' done by Hujan.Not 
100% accurate.Will be updated in the future




farishabbo@gmail.com
Tap to rate this tab
 
# A B C D E F G H I J K L M N O P Q R S T U V W X Y Z