Song name
# A B C D E F G H I J K L M N O P Q R S T U V W X Y Z

Hujan - Aku Skandal tab

sori la aku x tau name chord.then aku just pakai tab

123,go...kanku berikn semua...
------0---------------0--|
------3---------------7--|
------4---------------7--|
------4---------------5--|
------5---------------7--|
------0---------------0--|

.........agar kau..ngkau ttp..meningglkn..
0---------------0----0--------3--------------2-|
3---------------7----1--------4--------------3-|
4---------------7----0--------3--------------2-|
4---------------5----2--------5--------------0-|
5---------------7----0--------3--------------0-|
0---------------0----0--------3--------------0-|

chorus

         waktu duka dulu.(sume main running)
0---------------------3---0---0---0-----------|
3---------------------5---0---4---3-----------|
4---------------------4---5---5---4-----------|
4---------------------5---5---4---4-----------|
5---------------------0---0---5---5-----------|
0---------------------0---5---0---0-----------|

then korang terus repeat2 jela..kalau x paham roger aku abangabdullatif@gmail.com
Tap to rate this tab
 
# A B C D E F G H I J K L M N O P Q R S T U V W X Y Z