Guitaretab - guitar tabs
Song name
# A B C D E F G H I J K L M N O P Q R S T U V W X Y Z

Hum - Stars tab

Tuning: D A D G B E


INTRO
                     x4
|-----------------2----|
|-----------------3----|
|-7-7-7-7-7-7-7-7-2----|
|-7-7-7-7-7-7-7-7-0----|
|-5-5-5-5-4-4-4-4-0----|
|-5-5-5-5-4-4-4-4-0----|
                  ^hit the distortion here on the 4th time and let it sustain

Clean guitar:
|----------------(0)-----|
|--------------------0---|
|-11b12r11-11-11--9----0-|
|-----------------0------|
|-9-b10r9--9--9--(0)-----|
|-0--------0--0----------|


Distorted guitar:
|------------------------------|
|------------------------------|
|-11b12r11-11-11--9--9---9--9--|
|-----------------0--0---0--0--|
|-9-b10r9--9--9---0--0---0--0--|
|-0--------0--0----------------|


VERSE
|------------------------------|
|------------------------------|
|-11b12r11-11-11--9--9---9--9--|
|-----------------0--0---0--0--|
|-9-b10r9--9--9---0--0---0--0--|
|-0--------0--0----------------|


CHORUS
|-----------------|
|-----------------|
|-7-7-7-7-7-7-7-7-|
|-7-7-7-7-7-7-7-7-|
|-5-5-5-5-4-4-4-4-|
|-5-5-5-5-4-4-4-4-|

|---------------------------------------------------------|
|---------------------------------------------------------|
|---------------------------------------------------------|
|-0--0-0-2h4-0-0--0-0-2h4-0-0-0--0-0-2h4-0-0--0-0-2h4-2p0-|
|-0--0-0-2h4-0-0--0-0-2h4-0-0-0--0-0-2h4-0-0--0-0-2h4-2p0-|
|-0--0-0-2h4-0-0--0-0-2h4-0-0-0--0-0-2h4-0-0--0-0-2h4-2p0-|
  .  ...     ...  ...     .....  ...     ...  ...
[ Tab from: http://www.guitaretab.com/h/hum/21673.html ]
|-----------------|
|-----------------|
|-7-7-7-7-7-7-7-7-|
|-7-7-7-7-7-7-7-7-|
|-5-5-5-5-4-4-4-4-|
|-5-5-5-5-4-4-4-4-|


BRIDGE
                             x3
|-----------------12-12--12-12-|
|------------------------------|
|-11b12r11-11-11--9--9---9--9--|
|------------------------------|
|-9-b10r9--9--9----------------|
|-0--------0--0----------------|

|-----------------17-17--17-17-|
|-----------------17-17--17-17-|
|-11b12r11-11-11--14-14--14-14-|
|------------------------------|
|-9-b10r9--9--9----------------|
|-0--------0--0----------------|


VERSE 2 - Same


CHORUS 2 - Same


BRIDGE 2 - Same but play twice


Then hit this and let it ring
|----------|
|-3--------|
|-2--------|
|-0--------|
|-0--------|
|-0--------|


INTERLUDE
|---------------------------------|
|---------------------------------|
|---------------------------------|
|-----0---------------------------|
|---0---0---0---0-7-----------7/9-|
|-5-------5---5-----9-7-9-7-9-----|
  ...   .........   .........


BRIDGE 3
|-----------------12-12--12-12-|
|------------------------------|
|-11b12r11-11-11--9--9---9--9--|
|------------------------------|
|-9-b10r9--9--9----------------|
|-0--------0--0----------------|
                        
|-----------------17-17--17-17-|
|-----------------17-17--17-17-|
|-11b12r11-11-11--14-14--14-14-|
|------------------------------|
|-9-b10r9--9--9----------------|
|-0--------0--0----------------|


CHORUS 3 - Same


BRIDGE 4/OUTRO - Same
Related for Stars tab
Stars chords by Hum