Song name
# A B C D E F G H I J K L M N O P Q R S T U V W X Y Z

Hum - Stars tab

-------------------------------------------------------------------------------
			     Stars - Hum
-------------------------------------------------------------------------------
Tabbed by:Riff Driven
Email:musicmedicates@yahoo.com

I was listening to some 90's jams and came across Hum, wanted to play this
song so I checked the site for some tabs, they were all wrong (sorry peeps).
So I got to work, here it is...enjoy.

Tuning:Drop D (D A D G B e)

Intro              *Listen to the song for strumming!*

e|-----------------------2---|
B|--7--7--7---7--7--7----3---| Played clean x2, lyrics begins on the third
G|--7--7--7---7--7--7----2---| time through, and the D chord gets distortion
D|--7--7--7---7--7--7----0---| at the end of the fourth run.(let ring)
A|--5--5--5---4--4--4----0---|
D|--5--5--5---4--4--4----0---|

Verse 1
    ~  ~  ~
e|------------0--0--0---|
B|------------5--5--5---| Played clean with some echo and a dash of phaser x4,
G|--0--0--0---4--4--4---| then play with distortion and slightly vibrato the 
D|--4--4--4---0--0--0---| A string x16
A|--5--5--5-------------|
D|--0--0--0-------------|

Chorus
                        *   *     **   *          *   *     **   *
e|---------------------------------------------------------------------------|
B|--7--7--7---7--7--7--------------------------------------------------------|
G|--7--7--7---7--7--7--------------------------------------------------------|
D|--7--7--7---7--7--7---0-2-0-2h4-00-2-0-2h4-2p0--0-2-0-2h4-00-2-0-2h4-2p0---|
A|--5--5--5---4--4--4---0-2-0-2h4-00-2-0-2h4-2p0--0-2-0-2h4-00-2-0-2h4-2p0---|
D|--5--5--5---4--4--4---0-2-0-2h4-00-2-0-2h4-2p0--0-2-0-2h4-00-2-0-2h4-2p0---|

                      % ~  ~  ~                ~  ~  ~
e|---------------------------------------------------------------------------|
B|--7--7--7---7--7--7------------17-17--17-17-----------17-17--17-17---------|
G|--7--7--7---7--7--7---0--0--0--x--x---x--x---0--0--0--x--x---x--x----------|
D|--7--7--7---7--7--7---4--4--4--14-14--14-14--4--4--4--14-14--14-14---------|
A|--5--5--5---4--4--4---5--5--5----------------5--5--5-----------------------|
D|--5--5--5---4--4--4---0--0--0----------------0--0--0-----------------------|

    ~  ~  ~                ~  ~  ~              %
e|----------------------------------17-17--17-17---|
B|-----------17-17--17-17-----------17-17--17-17---| Play part between the "%"
G|--0--0--0--x--x---x--x---0--0--0--14-14--14-14---|           x2
D|--4--4--4--14-14--14-14--4--4--4--14-14--14-14---|
A|--5--5--5----------------5--5--5--0--0---0--0----|
D|--0--0--0----------------0--0--0-----------------|

Verse 2
    ~  ~  ~
e|------------0--0--0---|
B|------------5--5--5---|
G|--0--0--0---4--4--4---|
D|--4--4--4---0--0--0---| x8
A|--5--5--5-------------|
D|--0--0--0-------------|

Chorus
                        *   *     **   *          *   *     **   *
e|---------------------------------------------------------------------------|
B|--7--7--7---7--7--7--------------------------------------------------------|
G|--7--7--7---7--7--7--------------------------------------------------------|
D|--7--7--7---7--7--7---0-2-0-2h4-00-2-0-2h4-2p0--0-2-0-2h4-00-2-0-2h4-2p0---|
A|--5--5--5---4--4--4---0-2-0-2h4-00-2-0-2h4-2p0--0-2-0-2h4-00-2-0-2h4-2p0---|
D|--5--5--5---4--4--4---0-2-0-2h4-00-2-0-2h4-2p0--0-2-0-2h4-00-2-0-2h4-2p0---|

                      % ~  ~  ~                ~  ~  ~
e|---------------------------------------------------------------------------|
B|--7--7--7---7--7--7------------17-17--17-17-----------17-17--17-17---------|
G|--7--7--7---7--7--7---0--0--0--x--x---x--x---0--0--0--x--x---x--x----------|
D|--7--7--7---7--7--7---4--4--4--14-14--14-14--4--4--4--14-14--14-14---------|
A|--5--5--5---4--4--4---5--5--5----------------5--5--5-----------------------|
D|--5--5--5---4--4--4---0--0--0----------------0--0--0-----------------------|

    ~  ~  ~                ~  ~  ~              %
e|----------------------------------17-17--17-17---|
B|-----------17-17--17-17-----------17-17--17-17---| Play part between the "%"
G|--0--0--0--x--x---x--x---0--0--0--14-14--14-14---|           x2
D|--4--4--4--14-14--14-14--4--4--4--14-14--14-14---|
A|--5--5--5----------------5--5--5--0--0---0--0----|
D|--0--0--0----------------0--0--0-----------------|

Breakdown
       git 1         git 2 fill
e|---------------|----------------|
B|---------------|----------------|
G|---------------|--7-6---0-0-----| X10
D|--0--Let ring--|--0-0-0-5-4-0---|
A|--0------------|------0-----0---|
D|--0------------|----------------|

         %      play x16           %    ~  ~  ~            ~  ~  ~
e|------------------------------------|--------------------------------------|
B|------------------------------------|----------17-17-17-----------17-17-17-|
G|------------------------------------|-0--0--0--x--x--x---0--0--0--x--x--x--|
D|------------------------------------|-4--4--4--14-14-14--4--4--4--14-14-14-|
A|-----------5---------7---------7h5--|-5--5--5------------5--5--5-----------|
D|--18\--0-7---7-7-0-7---9-7-0-7------|-0--0--0------------0--0--0-----------|

Chorus
                        *   *     **   *          *   *     **   *
e|---------------------------------------------------------------------------|
B|--7--7--7---7--7--7--------------------------------------------------------|
G|--7--7--7---7--7--7--------------------------------------------------------|
D|--7--7--7---7--7--7---0-2-0-2h4-00-2-0-2h4-2p0--0-2-0-2h4-00-2-0-2h4-2p0---|
A|--5--5--5---4--4--4---0-2-0-2h4-00-2-0-2h4-2p0--0-2-0-2h4-00-2-0-2h4-2p0---|
D|--5--5--5---4--4--4---0-2-0-2h4-00-2-0-2h4-2p0--0-2-0-2h4-00-2-0-2h4-2p0---|

                        ~  ~  ~                ~  ~  ~
e|---------------------------------------------------------------------------|
B|--7--7--7---7--7--7------------17-17--17-17-----------17-17--17-17---------|
G|--7--7--7---7--7--7---0--0--0--x--x---x--x---0--0--0--x--x---x--x----------|
D|--7--7--7---7--7--7---4--4--4--14-14--14-14--4--4--4--14-14--14-14---------|
A|--5--5--5---4--4--4---5--5--5----------------5--5--5-----------------------|
D|--5--5--5---4--4--4---0--0--0----------------0--0--0-----------------------|

    ~  ~  ~                ~  ~  ~              
e|----------------------------------17-17--17-17\---|
B|-----------17-17--17-17-----------17-17--17-17\---| 
G|--0--0--0--x--x---x--x---0--0--0--14-14--14-14\---|           
D|--4--4--4--14-14--14-14--4--4--4--14-14--14-14\---|
A|--5--5--5----------------5--5--5--0--0---0--0-----|
D|--0--0--0----------------0--0--0------------------|


************************************

| /   slide up
| \   slide down
| *   palm mute
| h   hammer-on
| p   pull-off
| ~   vibrato
| +   harmonic
| x   Mute note
| b   Bend
| pb  Pre-bend
| br  Bend release
| pbr Pre-bend release
| brb Bend release bend

************************************
Tap to rate this tab
# A B C D E F G H I J K L M N O P Q R S T U V W X Y Z