Song name
# A B C D E F G H I J K L M N O P Q R S T U V W X Y Z

Hum - Id Like Your Hair Long tab

Hum - I'd Like Your Hair Long
You'd Prefer an Astronaut


Tuning: D A D G B E


INTRO

 Guitar 1
|----------------------------------|
|----------------------------------|
|-14-14-14-14-14-----11-11--12-12--|
|-14-14-14-14-14-----11-11--12-12--|
|-12-12-12-12-12-----9--9---10-10--|
|-12-12-12-12-12-----9--9---10-10--|
|Guitar 2 
|----------------------------------|
|-14-------14----------------------|
|----14-------14-----11-11--12-12--|
|-------14-------14--11-11--12-12--|
|--------------------9--9---10-10--|
|--------------------9--9---10-10--|


VERSE - Play intro riff

 Guitar 1 Fill
|----------7-10-9---|
|-----8-10--------7-|
|-7-9---------------|
|-------------------|
|-------------------|
|-------------------|
|Guitar 2 Fill
|-----------------|
|-----------------|
|---------4-7-6---|
|-----5-7-------4-|
|-5-7-------------|
|-----------------|


Play this just before the chorus
|-------------|
|-------------|
|-------------|
|-4-4-4-5-5-5-|
|-4-4-4-5-5-5-|
|-4-4-4-5-5-5-|


CHORUS
 Guitar 1
|---------------------------------------------------------------------------|
|---------------------------------------------------------------------------|
|---7-----7-----11-----11-----6-----6-----9-----9-----4-----4---------------|
|-----0-----0------0------0-----0-----0-----0-----0-----0-----0-4-4-4-5-5-5-|
|-5-----5-----9------9------4-----4-----7-----7-----2-----2-----4-4-4-5-5-5-|
|---------------------------------------------------------------4-4-4-5-5-5-|
|Guitar 2 
|---------------------------------------------------------------------------|
|---------------------------------------------------------------------------|
|--7-----7-----11----11----6-----6-----9-----9-----4-----4------------------|
|-(0)---(0)---(0)---(0)---(0)---(0)---(0)---(0)---(0)---(0)-----4-4-4-5-5-5-|
|--5-----5-----9-----9-----4-----4-----7-----7-----2-----2------4-4-4-5-5-5-|
|--0-----0-----0-----0-----0-----0-----0-----0-----0-----0------4-4-4-5-5-5-|


VERSE 2 - Same


CHORUS 2 - Same


INTERLUDE - strum around on this 
|-0-------0----|
|-0--0---------|
|-11---11------|
|-0---------11-|
|-9------------|
|-0------------|

Add this a little later
|-12p0----0-------|
|-0-------12p0----|
|-11------11------|
|-0-------0-------|
|-9-------9-------|
|-0-------0-------|


And then play this just before chorus 3
|-0-0-0-0-0-0-|
|-0-0-0-0-0-0-|
|-X-X-X-0-0-0-|
|-4-4-4-5-5-5-|
|-4-4-4-5-5-5-|
|-4-4-4-5-5-5-|


CHORUS 3
|---------------------------------------------------------------0-0-0-0-0-0-|
|---------------------------------------------------------------0-0-0-0-0-0-|
|---7-----7-----11-----11-----6-----6-----9-----9-----4-----4---X-X-X-0-0-0-|
|-----0-----0------0------0-----0-----0-----0-----0-----0-----0-4-4-4-5-5-5-|
|-5-----5-----9------9------4-----4-----7-----7-----2-----2-----4-4-4-5-5-5-|
|---------------------------------------------------------------4-4-4-5-5-5-|


OUTRO
|-----------------------------------------0--------|
|-------------------------------------------4------|
|---------------------4-6-4-6-6--6-6-6-2------4----|
|-6-6--6-6-6-4-4--4-6-4-6-4-6-6--6-6-6-2-----------|
|-6-6--6-6-6-4-4--4-6-2-4-2-4-4--4-4-4-0-----------|
|-6-6--6-6-6-4-4--4-6------------------------------|


End on
|------|
|------|
|-2----|
|-2----|
|-0----|
|------|
Tap to rate this tab
# A B C D E F G H I J K L M N O P Q R S T U V W X Y Z