Song name
# A B C D E F G H I J K L M N O P Q R S T U V W X Y Z

Hum - Why I Like The Robins tab

HUM - Why I Like The Robins
Transcribed by FUDGEcenter
Tuning: D A D G B E


intro/Verse:

D|-----0--0--0--|-----0--0--0--|
A|--0--0--0--0--|--0--0--0--0--|
D|--0--x--6--6--|--0--0--6--6--|
G|--x--4--4--7--|--0--4--4--7--|
B|--5--5--5--5--|--x--x--x--x--|
D|--0--0--0--0--|--5--5--5--5--|


"Shes looking for birds she met last fall"

@0:54          x4  @1:07         x4
E|-----0--0--0--|  |-----0--0--0--|
B|--0--0--0--0--|  |--0--0--0--0--|
G|--0--0--6--6--|  |--0--0--6--6--|
D|--0--4--4--7--|  |--0--4--4--7--|
A|--x--x--x--x--|  |--5--5--5--5--|
D|--5--5--5--5--|  |--0--0--0--0--|

"I like your raindrop collector"

@1:20                              x2  @1:34                      x2
E|--0--5----------------------------|  |--0--5---------------------|
B|--0--0--------0-----------0-------|  |--0--0--------0------------|
G|--6--0------0---0-------0---0-----|  |--6--0------0---0-------0--|
D|--4--4----4-------4---4-------4---|  |--4--4----4-------4---4----|
A|--5--5--5-----------5-----------5-|  |--5--5--5-----------5------|
D|--0--0----------------------------|  |--0--0---------------------|


Both guitars in distortion

@1:45       x2  @2:00       x2
E|-----------|  |------------|
B|--5--9--12-|  |--5--9---12-|
G|--6--9--13-|  |--6--9---13-|
D|--4--7--11-|  |--4--7---11-|
A|--0--0--0--|  |--0--x---x--|
D|--0--0--0--|  |--0--x---x--|


There's an acoustic guitar at this part you could barley hear

@2:21
E|----------------------------------------------------|
B|----------------------------------------------------|
G|----------------------------------------------------|
D|--4/5--4-4--4/5--4-4---4-4-4--4h5-4-4---4h5-4-4--4--|
A|----------------------------------------------------|
D|----------------------------------------------------|


"I'll take the glasses and cover for you"

@2:38          x4
E|-----0--0--0--|
B|--0--0--0--0--|
G|--0--0--6--6--|
D|--0--4--4--7--|
A|--x--x--x--x--|
D|--5--5--5--5--|


Both guitars in distortion again

@2:50       x2  @3:03       x2
E|-----------|  |------------|
B|--5--9--12-|  |--5--9---12-|
G|--6--9--13-|  |--6--9---13-|
D|--4--7--11-|  |--4--7---11-|
A|--0--0--0--|  |--0--x---x--|
D|--0--0--0--|  |--0--x---x--|


Matt's guitar: left channel

@3:15
E|------------------------------------------------------------------------------------------|
B|------------------------------------------------------------------------------------------|
G|------------------6-6------------------7-7------------------6--------7--7--7----9------2--|
D|----------4--7-7--x-x----------4--7-7--x-x----------4--7-7---7---7/9--9--9--9/11--11-4---4|
A|--2--5-5--0--x-x--x-x--2--5-5--0--x-x--x-x--2--5-5--0--x-x--------------------------------|
D|--x--x-x--x--x-x--x-x--x--x-x--x--x-x--x-x--x--x-x--x--x-x--------------------------------|

@3:27
E|---------------------------------------------------------------------------------------------|
B|---------------------------------------------------------------------------------------------|
G|------------------6-6------------------7-7------------------6/7-6-------7--7--7----9------2--|
D|----------4--7-7--x-x----------4--7-7--x-x----------4--7-7-------7--7/9--9--9--9/11--11-4---4|
A|--2--5-5--0--x-x--x-x--2--5-5--0--x-x--x-x--2--5-5--0--x-x-----------------------------------|
D|--x--x-x--x--x-x--x-x--x--x-x--x--x-x--x-x--x--x-x--x--x-x-----------------------------------|

@3:40
E|------------------------------------------------------------------------------------------|
B|------------------------------------------------------------------------------------------|
G|------------------6-6------------------7-7------------------6--------7--7--7----9------2--|
D|----------4--7-7--x-x----------4--7-7--x-x----------4--7-7---7---7/9--9--9--9/11--11-4---4|
A|--2--5-5--0--x-x--x-x--2--5-5--0--x-x--x-x--2--5-5--0--x-x--------------------------------|
D|--x--x-x--x--x-x--x-x--x--x-x--x--x-x--x-x--x--x-x--x--x-x--------------------------------|

@3:53
E|--------------------------------------------------------------------------------------------------|
B|--------------------------------------------------------------------------------------------------|
G|------------------6------------------------6/7-6---6-7-6-----------6---------7--7--7----9------2--|
D|----------4--7-7--x-7----------2--4--7-7---------7-------7-----7----7----7/9--9--9--9/11--11-4---4|
A|--2--5-5--0--x-x--x-x--2--5-5--x--x--x-x-------------------0-5---9--------------------------------|
D|--x--x-x--x--x-x--x-x--x--x-x--x--x--x-x----------------------------------------------------------|

@4:05
E|--------------------------------------------------------------------------------------------------|
B|--------------------------------------------------------------------------------------------------|
G|------------------6-6---------------------7-7-------------------6---------7--7--7-----9------2----|
D|----------4--7-7--x-x----------2--4--7-7--x-x-----------4--7-7----7-7--7/9--9--9--9/11--11-4--4--0|
A|--2--5-5--0--x-x--x-x--2--5-5--x--x--x-x--x-x---2--5-5--0--7-7-----------------------------------0|
D|--x--x-x--x--x-x--x-x--x--x-x--x--x--x-x--x-x---x--x-x--x--x-x-----------------------------------0|



Tim's guitar: right channel

@3:15
E|------------------------------------------------------------------------------------------|
B|------------------------------------------------------------------------------------------|
G|------------------6-6------------------7-7------------------6--------7--7--7----9------2--|
D|----------4--7-7--x-x----------4--7-7--x-x----------4--7-7---7---7/9--9--9--9/11--11-4---4|
A|--2--5-5--0--x-x--x-x--2--5-5--0--x-x--x-x--2--5-5--0--x-x--------------------------------|
D|--x--x-x--x--x-x--x-x--x--x-x--x--x-x--x-x--x--x-x--x--x-x--------------------------------|

@3:27
E|---------------------------------------------------------------------------------------------|
B|---------------------------------------------------------------------------------------------|
G|------------------6-6------------------7-7------------------6/7-6-------7--7--7----9------2--|
D|----------4--7-7--x-x----------4--7-7--x-x----------4--7-7-------7--7/9--9--9--9/11--11-4---4|
A|--2--5-5--0--x-x--x-x--2--5-5--0--x-x--x-x--2--5-5--0--x-x-----------------------------------|
D|--x--x-x--x--x-x--x-x--x--x-x--x--x-x--x-x--x--x-x--x--x-x-----------------------------------|

@3:40
E|------------------------------------------------------------------------------------------|
B|------------------------------------------------------------------------------------------|
G|------------------6-6------------------7-7------------------6--------7--7--7----9------2--|
D|----------4--7-7--x-x----------4--7-7--x-x----------4--7-7---7---7/9--9--9--9/11--11-4---4|
A|--2--5-5--0--x-x--x-x--2--5-5--0--x-x--x-x--2--5-5--0--x-x--------------------------------|
D|--x--x-x--x--x-x--x-x--x--x-x--x--x-x--x-x--x--x-x--x--x-x--------------------------------|

@4:53
E|--------------------------------------------------------------------------------------------------|
B|--------------------------------------------------------------------------------------------------|
G|------------------6------------------------6/7-6---6-7-6-----------6---------7--7--7----9------2--|
D|----------4--7-7--x-7----------2--4--7-7---------7-------7-----7----7----7/9--9--9--9/11--11-4---4|
A|--2--5-5--0--x-x--x-x--2--5-5--x--x--x-x-------------------0-5---9--------------------------------|
D|--x--x-x--x--x-x--x-x--x--x-x--x--x--x-x----------------------------------------------------------|

@4:05
E|------------------------------------------------------------------------------------------|
B|------------------------------------------------------------------------------------------|
G|------------------6-6------------------------------------6---------7--7--7-----9-----2----|
D|----------4--7-7--x-x------4---6---7-7-----------4--7-7----7-7--7/9--9--9--9/11--11-4--4-0|
A|--2--5-5--0--x-x--x-x--2/5---5---7-------2--5-5--0--x-x----------------------------------0|
D|--x--x-x--x--x-x--x-x--------------------x--x-x--x--x-x----------------------------------0|
Tap to rate this tab
# A B C D E F G H I J K L M N O P Q R S T U V W X Y Z