Huma - I Cant Sleep In Silence tab

Huma - "I cant sleep in silence"
http://www.humamusic.com/
cool song I heard off the British tv show Skins.

intro, I can hear it till 1:17 i think
E|--------------------------------|
B|--------------------------------|
G|-7s9-7-5-7~---------------------|
D|--------------------------------|
A|--------------------------------|
E|--------------------------------|

synth part starts at 0:05 till the end
E|--------------------------------|
B|--------------------------------|
G|-5s7s9s7~-----------------------|
D|--------------------------------|
A|--------------------------------|
E|--------------------------------|

guitar riff  0:30 to 1:17
E|--------------------------------------------------|
B|--------------------------------------------------|
G|-----------9-------12-9----------9-------12-9-----|
D|-10--12-12---12-10-------10-12~----12-10----------|
A|--------------------------------------------------|
E|--------------------------------------------------|

2nd part starts 1:17 till the end
Could play it like this or just play either the g or a string.
E|--------------------------------|
B|--------------------------------|
G|-5-7-5-7s9s7--------------------|
D|-x-x-x-x-x-x--------------------|
A|-3-5-3-5s7s5--------------------|
E|--------------------------------|
Tap to rate this tab
 
# A B C D E F G H I J K L M N O P Q R S T U V W X Y Z