Song name
# A B C D E F G H I J K L M N O P Q R S T U V W X Y Z

Human League - Lebanon tab

Intro/Chorus
e|-10-10-9-9-10-10-9-9-10-9-7----10-10-9-9-10-10-9-9-10-9-7----|
B|----------------------------10----------------------------10-|
G|-------------------------------------------------------------|
D|-------------------------------------------------------------|
A|-------------------------------------------------------------|
E|-------------------------------------------------------------|

e|-10-10-10---12-x-x-x-x-12-12-12--*
B|-10-10-10---12-x-x-x-x-12-12-12--*
G|*--------------------------------*
D|*--------------------------------*
A|---------------------------------*
E|---------------------------------*

No guitar on the verses, but the keys are doing something like this:

e|-0-----0--3--5-----5--3--0--|
B|-0-----0--3--5-----5--3--0--|
G|-1-----1--4--6-----6--4--1--|
D|-2-----2--5--7-----7--5--2--|
A|----------------------------|
E|----------------------------|

But I personally think it sounds much better on the keys than guitar.

Bridge riff:  (I must be dreaming...)
e||---0---0---0---0---------------------------------------------------|
B||-------------------8-10s12-10-8---8-10s12-10-8---------------------|
G||-9---9---9---9---9--------------9--------------9-7-----------------|
D||-------------------------------------------------------------------|
A||-------------------------------------------------------------------|
E||-------------------------------------------------------------------|

Post-bridge riff:
e||-------10---9---9--------------------------------------------------|
B||-------------------10s12--12--12--10--10--10-----------------------|
G||-9---9----9---9----------------------------------------------------|
D||-------------------------------------------------------------------|
A||-------------------------------------------------------------------|
E||-------------------------------------------------------------------|

Outro is Bridge/Post-Bridge again.

That's pretty much all there is to it.  Cool song.  iamjosh@vt.edu for general commentary.
Tap to rate this tab
 
# A B C D E F G H I J K L M N O P Q R S T U V W X Y Z