Song name
# A B C D E F G H I J K L M N O P Q R S T U V W X Y Z

Humble Pie - One-eyed Trouser-snake Rhumba tab

Band: Humble Pie
Song: one eyed trouser-snake rhumba
Album Humble Pie(1970)
written by: Steve Marriott, Peter Frampton, Greg Ridley & Jerry Shirley
Tab By: Sam (fffan41@aol.com)

This is just the main rhythm parts for the song, just improvise in A minor for the solo.


Main riff:
E||------------------------|-------------------------|
B||------------------------|-------------------------|
G||-------2----------------|-------------------------|
D||-------------5----------|-------5-----3--2--------|
A||--0-------0-----0--3b---|----------5--------------|
E||------------------------|--3----------------3--4--|

Verse:
|-----------------|-----------------|
|-----------------|-----------------|
|-----------------|-----------------|
|-----------------|-----------------|
|-7---9---7---9---|-5---7---5---7---|
|-5-5-5-5-5-5-5-5-|-3-3-3-3-3-3-3-3-|

Chorus:
|-----------------|------------------|
|-----------------|------------------|
|-----------------|-------------5----|
|-----------------|---------5---5----|
|-7---9---7---9---|-7---9---5---3----|
|-5-5-5-5-5-5-5-5-|-5-5-5-5-3--------|
Tap to rate this tab
 
# A B C D E F G H I J K L M N O P Q R S T U V W X Y Z