Song name
# A B C D E F G H I J K L M N O P Q R S T U V W X Y Z

Humble Pie - Up Your Sleeves tab

Up your sleeves (not Up our sleeves)

 ~ = vibrato
 h = hammer on
 p = pull off
 s = pinched harmonic (pick squeal)
 / = slide down

Chords: G,A,Em,Emj

main riff:
e -3---------------3----------------------|
b -3-2---5-5-5-5---3-2---5-5-5-5----------|
g -0-2---4-4-4-4---0-2---4-4-4-4----------|
d -0-2-2-2-2-2-2---0-2-2-2-2-2-2-----5----|
a -2-0-2-----------2-0-2----------5-7-7~--|
e -3---0-----------3---0---------7--------|


Lick after (intro main riff):
e ------------------------------------------------------------------------|
b --15-15-----------------------------------------------17~17~17~p15h17---|
g -16-16-16-16~16~16~12-12-14-12------------12-12p14h12-------------------|
d --------------------14--------14-----12p14-14---------------------------|
a ---------------------------------12p14--------------------------------/-|
e ----------------------------------------------------------------------/-|


Main riff (power chord):
e ---------------------|
b ---------------------|
g ---------------------|
d -5-7(7/5)2------5s---|
a -5-7(7/5)2---5-7--7~-|
e -3-5-----0--7--------|

any questions or requests, email me at: richard_6myth@hotmail.co.uk
or message my U-G account: Richard 6myth
Tap to rate this tab
 
# A B C D E F G H I J K L M N O P Q R S T U V W X Y Z