Song name
# A B C D E F G H I J K L M N O P Q R S T U V W X Y Z

Hundred Reasons - Counting tab

Artist: Hundred reasons
Song: Counting the days
Tabbed by : Ricky C (Gumbleweed@hotmail.com)


intro:

eb|---------------------------------------------------------------------|
bb|---------------------------------------------------------------------|
gb|--8-8--8--8----8----8--8--8--8---------------------------------------|
db|--8-8--8--8----8----8--8--8--8---------------------------------------|x2
ab|--6h7--6--6---6h7--6--6--6h7-----------------------------------------|
eb|---------------------------------------------------------------------|


verse is intro x10  but with more distortion and volume


chorus:

eb|-----------------------------------------------------------------------------------------------|
bb|-----------------------------------------------------------------------------------------------|
gb|-----------------------------------------------------------------------------------------------|
db|----8-8-8-8-8-8-8-8--8-8-8-8-8-8-8-8---8--8--8--8--8--8--8--8---8-8--8--8--8--8--8-------------|
ab|----6-6-6-6-6-6-6-6--8-8-8-8-8-8-8-8--10-10-10-10-10-10-10-10--11-11-11-11-11-11-11-11---------|
eb|-----------------------------------------------------------------------------------------------|


then verse again

then chorus part but pick chords

rest is variation of chorus
Tap to rate this tab
 
# A B C D E F G H I J K L M N O P Q R S T U V W X Y Z