Song name
# A B C D E F G H I J K L M N O P Q R S T U V W X Y Z

Hundred Reasons - Dissolve tab

This sounds right to me, sorry its only the main riff!

TUNING: ONE WHOLE STEP DOWN

Main riff:
e|----------------------------------
b|----------------------------------
g|-------7---9---7------------------    REPEAT 4 TIMES
d|-0-0-0---0---0---0-0-0---0-7------
a|-----------------------0----------
E|----------------------------------

Then:
e|----------------------------------
b|----------------------------------
g|-------11---9---11----------------
d|-0-0-0----0---0----0-0-0---0-7----
a|-------------------------0--------
E|----------------------------------
Tap to rate this tab
 
# A B C D E F G H I J K L M N O P Q R S T U V W X Y Z