Song name
# A B C D E F G H I J K L M N O P Q R S T U V W X Y Z

Hundred Reasons - Savanna tab

Artist: Hundred Reasons
Title: Savanna
Album: Shatterproof Is Not A Challenge


^|Bend
"|tremelo arm

Intro:
 C
|---------------------------|--------------------|
|---------------------------|--------------------|
|---------------------------|--------------------|
|-----10----------10^-^-----|-----10-------------|
|-----10-------10-10^-^-----|-----10-------------|
|-8-8-----8-8---------------|-8-8------8---"-----|x2

Verse same as intro


Chorus:
"Get on your knees and savanna"
|------------------------------|
|------------------------------|
|-8--------------------7-------|
|-8--------------------7-------|
|-6--------------------5-------|
|------------------------------|
Tap to rate this tab
# A B C D E F G H I J K L M N O P Q R S T U V W X Y Z