Song name
# A B C D E F G H I J K L M N O P Q R S T U V W X Y Z

Hundred Reasons - What You Get tab

Help us improve GuitareTab! Take a short survey!
----------------------------------------------------------------------------
			     What You Get - Hundred Reasons
-----------------------------------------------------------------------------
Tabbed by: Pete


Tuning: Drop D

Intro and Chorus
e|--------------------------------------------------------------------------|
B|----0-------0-------0-------0-------0-------0-----------------------------|
G|----6-------6-------6-------6-------6-------6-6--6---6---6---6-6----------|
D|----------------------------------------------7--7-7-7-7-7-7-7-7-(x2)-----|
A|0-0---0-0-0---0-0-0---0-0-0---0-0-0---0-0-0------8-8-8-8-8-8-8-8----------|
D|--------------------------------------------------------------------------|

e|--------------------------------------------------------------------------|
B|--------------------------------------------------------------------------|
G|-2-2---------2-2-2-2---------2-2------------------------------------------|
D|-2-2-3-3-2-2-2-2-2-2-3-3-2-2-0-0-(x4)-------------------------------------|
A|-0-0-3-3-2-2-0-0-0-0-3-3-2-2-0-0------------------------------------------|
D|-----1-1-0-0---------1-1-0-0----------------------------------------------|



| /  slide up
| \  slide down
| h  hammer-on
| p  pull-off
| ~  vibrato
| +  harmonic
| x  Mute note
=============================================================================
Related for What You Get tab