Song name
# A B C D E F G H I J K L M N O P Q R S T U V W X Y Z

Hundred Reasons - Perfect Gift tab

Artist: Hundred Reasons
Song: The Perfect Gift
Album: Kill Your Own

Guitar 1: FFCFCF Tuning
Guitar 2: DGCFAD Tuning


Intro

Guitar 1 (repeated till Chorus)
F|-0-0-2p0-0-0-0-0-4p0-0-0-0-0-2p0-|
C|-0-0-0-0-0-0-0-0-0-0-0-0-0-0-0-0-|
F|-0-0-0-0-0-0-0-0-0-0-0-0-0-0-0-0-|
C|-0-0-0-0-0-0-0-0-0-0-0-0-0-0-0-0-|
F|---------------------------------|
F|---------------------------------|

Verse ("Suppose you...")

Guitar 2 comes in with

D|-----------------------------------------|
A|-----------------------------------------|
F|-5---------------------------------------|
C|-5--slow strum--------5------------------|
G|-3--------------------5--do not let ring-|
D|----------------------3------------------|

Hold (355333)

D|---3-5-3-|          |-----3-|          |---3-5-3-|
A|---------|          |---3---|          |---------|
F|---------|          |-------|          |---------|
C|---------| x 4 then |-5-----| x 2 then |---------| x2
G|-5-------|          |-3-----|          |-5-------|
D|-3-------|          |-------|          |-3-------|


Guitar 2 (Guitar 1 stops)

D|-----------------------------|
A|-----------------------------|
F|-9---------------5-----------|
C|-9--let ring-----5--let ring-|
G|-7---------------3-----------|
D|-----------------------------|

Guitar 1 comes in again and Guitar 2 plays:

D|------3~-----------3~----|
A|---3~----3~-----3~----3~-|
F|-0------------0----------|
C|-------------------------|
G|-------------------------|
D|-------------------------|

Prechorus
Guitar 1
F|---------------------------------|
C|-0-0-0-0-0-0-0-0-0-0-0-0-0-0-0-0-|
F|-7-7-7-7-7-7-7-7-7-7-7-7-7-7-7-7-|
C|-x-x-x-x-x-x-x-x-x-x-x-x-x-x-x-x-|
F|-7-7-7-7-7-7-7-7-5-5-5-5-5-5-5-5-|
F|---------------------------------|

Guitar 2
D|---------------------------------|
A|---------------------------------|
F|-7-7-7-7-7-7-7-7-7-7-7-7-7-7-7-7-|
C|-x-x-x-x-x-x-x-x-x-x-x-x-x-x-x-x-|
G|-5-5-5-5-5-5-5-5-3-3-3-3-3-3-3-3-|
D|---------------------------------|

Chorus

("Your songs...")

Guitar 1
F|-0-0-0-0-0--0--0--0--0--0-0-0-0-0-0-0-0-|
C|-0-0-0-0-10-10-10-10-10-9-9-9-9-7-7-7-7-|
F|-7-7-7-7-0--0--0--0--0--0-0-0-0-0-0-0-0-|
C|-0-0-0-0-0--0--0--0--0--0-0-0-0-0-0-0-0-|
F|----------------------------------------|
F|----------------------------------------|

Guitar 2
D|---------------------------------|
A|---------------------------------|
F|---------------------------------|
C|-5-5-5-5-5-5-5-5-5-5-5-5-5-5-5-5-|
G|-5-5-5-5-5-5-5-5-5-5-5-5-5-5-5-5-|
D|-3-3-3-3-3-3-3-3-3-3-3-3-3-3-3-3-|

("Your songs...") second time
Guitar 1
F|-0--0--0--0--0--0--0--0--0--0-0-0-0-0-0-0-0-|
C|-10-10-10-10-10-10-10-10-10-7-7-7-7-7-7-7-7-|
F|-0--0--0--0--0--0--0--0--0--0-0-0-0-0-0-0-0-|
C|-0--0--0--0--0--0--0--0--0--0-0-0-0-0-0-0-0-|
F|--------------------------------------------|
F|--------------------------------------------|

Guitar 2
D|---------------------------------|
A|---------------------------------|
F|---------------------------------|
C|-7-7-7-7-7-7-7-7-7-7-7-7-7-7-7-7-|
G|-7-7-7-7-7-7-7-7-7-7-7-7-7-7-7-7-|
D|-5-5-5-5-5-5-5-5-5-5-5-5-5-5-5-5-|

("Spare me...")
Guitar 1
F|-0-0-0-0-0-0-0-0-0-0-0-0-0-0-0-0-0-|
C|-0-0-0-0-0-0-0-0-0-0-0-0-0-0-0-0-0-|
F|-7-7-7-7-7-7-7-7-7-7-7-7-7-7-7-7-7-|
C|-0-0-0-0-0-0-0-0-0-0-0-0-0-0-0-0-0-|
F|-----------------------------------|
F|-----------------------------------|

Guitar 2
D|---------------------------------|        |---------------|
A|---------------------------------|        |---------------|
F|-5-5-5-5-5-5-5-5-5-5-5-5-5-5-5-5-|        |---------------|
C|-5-5-5-5-5-5-5-5-5-5-5-5-5-5-5-5-| End on |-5-------------|
G|-3-3-3-3-3-3-3-3-3-3-3-3-3-3-3-3-|        |-5--slow strum-|
D|---------------------------------|        |-3-------------|


Outro ("I don't know...")

Guitar 1 (not quite sure on this)

D|-14p12----12----12----12----12----12----14p12-|
A|-------12----12----12----12----12----12-------|
F|----------------------------------------------|
C|----------------------------------------------| repeat
G|----------------------------------------------|
D|----------------------------------------------|

Guitar 2

D|---------------------|                          |---------------|
A|---------------------|                          |---------------|
F|--------7------5-----|                          |---------------|
C|-5------7-x16--5-x16-| repeat twice then End on |-5-------------|
G|-5-x16--5------3-----|                          |-5--slow strum-|
D|-3-------------------|                          |-3-------------|

Guitar 1 plays out with Intro riff

-------------------------------------------------------------------
Enjoy. Contact me with any corrections
Tap to rate this tab
 
# A B C D E F G H I J K L M N O P Q R S T U V W X Y Z