Song name
# A B C D E F G H I J K L M N O P Q R S T U V W X Y Z

Hunter Hayes - Storm Warning tab

Capo on 2nd Fret 
http://www.hunterhayes.com/

Intro/Verse: (Not Actual Frets) 
e|----------------------------------|-------------------------/3-3------------|
B|------3---5p3---6---5p3---3-------|-------3---5p3---6---5---/3-3------------|
G|------------------------4---4---0-|-----------------------------------------|
D|--3/5---5-----5---5---------------|---3/5---5-----5---5---------------------|
A|----------------------------------|-----------------------------------------|
E|----------------------------------|-----------------------------------------|

e|----------------------------------|-----------------------------------------|
B|------3---5p3---6---5p3---3-------|------3---5p3---6---5---5----------------|
G|------------------------4---4---0-|---------------------------4p0-----------|
D|--3/5---5-----5---5---------------|--3/5---5-----5---5----------------------|
A|----------------------------------|-----------------------------------------|
E|----------------------------------|-----------------------------------------|



Pre-Chorus:

        Em7              C2                 Em7                  C2
e|---------------|------------------|-------------------|-------------------|
B|------3--------|--------3---------|--------3----------|---------3---------|
G|---------------|------------------|-------------------|-------------------|
D|------2--------|--------2---------|--------2----------|---------2---------|
A|------2--------|--------3---------|--------2----------|---------3---------|
E|---------------|------------------|-------------------|-------------------|


Chorus:

     G        F   C    x2      Em        D    C         F          C
e|---3-----|-----------|   |----------|--2----------|---------|----------|
B|---3-----|--1---1----|   |----------|--3----1-----|---1-----|----1-----|
G|---------|--2--------|   |----------|--2----------|---2-----|----------|
D|---------|--3---2----|   |----2-----|-------2-----|---3-----|----2-----|
A|---------|------3----|   |----2-----|-------3-----|---------|----3-----|
E|---3-----|-----------|   |----------|-------------|---------|----------|


Post-Chorus:

     G        F   C    x2     
e|---3-----|-----------|   
B|---3-----|--1---1----|  
G|---------|--2--------|  
D|---------|--3---2----|   
A|---------|------3----|   
E|---3-----|-----------|   


Verse: (Not Actual Frets)

e|----------------------------------|-------------------------/3-3------------|
B|------3---5p3---6---5p3---3-------|-------3---5p3---6---5---/3-3------------|
G|------------------------4---4---0-|-----------------------------------------|
D|--3/5---5-----5---5---------------|---3/5---5-----5---5---------------------|
A|----------------------------------|-----------------------------------------|
E|----------------------------------|-----------------------------------------|

e|----------------------------------|-----------------------------------------|
B|------3---5p3---6---5p3---3-------|------3---5p3---6---5---5----------------|
G|------------------------4---4---0-|---------------------------4p0-----------|
D|--3/5---5-----5---5---------------|--3/5---5-----5---5----------------------|
A|----------------------------------|-----------------------------------------|
E|----------------------------------|-----------------------------------------|


Pre-Chorus:

        Em7              C2                 Em7                   F
e|---------------|------------------|-------------------|-------------------|
B|------3--------|--------3---------|--------3----------|---------1---------|
G|---------------|------------------|-------------------|---------2---------|
D|------2--------|--------2---------|--------2----------|---------3---------|
A|------2--------|--------3---------|--------2----------|-------------------|
E|---------------|------------------|-------------------|-------------------|


Chorus:

     G        F   C    x2      Em        D    C         F          C
e|---3-----|-----------|   |----------|--2----------|---------|----------|
B|---3-----|--1---1----|   |----------|--3----1-----|---1-----|----1-----|
G|---------|--2--------|   |----------|--2----------|---2-----|----------|
D|---------|--3---2----|   |----2-----|-------2-----|---3-----|----2-----|
A|---------|------3----|   |----2-----|-------3-----|---------|----3-----|
E|---3-----|-----------|   |----------|-------------|---------|----------|


Post-Chorus:

     G        F   C       
e|---3-----|-----------|   
B|---3-----|--1---1----|  
G|---------|--2--------|  
D|---------|--3---2----|   
A|---------|------3----|   
E|---3-----|-----------|   


Solo: (Real Frets)

e|---------------------------------------------------------------------------------|
B|---------------------------------------------------------------------------------|
G|--14h16--14h16--14h16--14h16^p14---9h11--9h11--9h11--9h11--11/14-----------------|
D|---------------------------------------------------------------------------------|
A|---------------------------------------------------------------------------------|
E|---------------------------------------------------------------------------------|

e|---------------------------------|-----------------------------------------------|
B|---------------------------------|-----------------------------------------------|
G|--14h16--14h16--14h16--14h16^p14-|--19--18--16--14-------------------------------|
D|---------------------------------|------------------17--16--14--16p14------------|
A|---------------------------------|-------------------------------------17--16----|
E|---------------------------------|-----------------------------------------------|


Post-Solo

e|----------------------------------|-------------------------/3-3------------|
B|------3---5p3---6---5p3---3-------|-------3---5p3---6---5---/3-3------------|
G|------------------------4---4---0-|-----------------------------------------|
D|--3/5---5-----5---5---------------|---3/5---5-----5---5---------------------|
A|----------------------------------|-----------------------------------------|
E|----------------------------------|-----------------------------------------|

e|----------------------------------|-----------------------------------------|
B|------3---5p3---6---5p3---3-------|------3---5p3---6---5---5----------------|
G|------------------------4---4---0-|---------------------------4p0-----------|
D|--3/5---5-----5---5---------------|--3/5---5-----5---5----------------------|
A|----------------------------------|-----------------------------------------|
E|----------------------------------|-----------------------------------------|


Chorus:

     G        F   C    x2      Em        D    C         F          C
e|---3-----|-----------|   |----------|--2----------|---------|----------|
B|---3-----|--1---1----|   |----------|--3----1-----|---1-----|----1-----|
G|---------|--2--------|   |----------|--2----------|---2-----|----------|
D|---------|--3---2----|   |----2-----|-------2-----|---3-----|----2-----|
A|---------|------3----|   |----2-----|-------3-----|---------|----3-----|
E|---3-----|-----------|   |----------|-------------|---------|----------|


Post-Chorus:

     G        F   C    x4     End with G
e|---3-----|-----------|   
B|---3-----|--1---1----|  
G|---------|--2--------|  
D|---------|--3---2----|   
A|---------|------3----|   
E|---3-----|-----------|   


I'm pretty sure it's accurate! Have Fun!
Tap to rate this tab
 
# A B C D E F G H I J K L M N O P Q R S T U V W X Y Z