Song name
# A B C D E F G H I J K L M N O P Q R S T U V W X Y Z

Hunter Hayes - Wanted tab

Intro:

e|-------3-----------3-----------3------------3-----------3-----------3-------|
B|-1-----------1-----------1------------1-----------1-----------1-------------|
G|----0-----0-----0-----0-----0------0-----0-----0-----0-----0-----0-----0----|
D|-3--------2--------------0---------2--------------3--------2----------------|
A|----------------------------------------------------------------------------|
E|----------------------------------------------------------------------------|

e|-------3-----------3--------------------------------------------------------|
B|-1-----------1--------------------------------------------------------------|
G|----0-----0-----0-----------------------------------------------------------|
D|-0--------------------------------------------------------------------------|
A|----------3-----------------------------------------------------------------|
E|----------------------------------------------------------------------------|
Tap to rate this tab
 
# A B C D E F G H I J K L M N O P Q R S T U V W X Y Z