Song name
# A B C D E F G H I J K L M N O P Q R S T U V W X Y Z

Hunter Hayes - Light Me Up tab

Tuning: Standard
No Capo


Refer to these when * :
   
    *G
e|---3---|
B|---3---|
G|---0---|
D|---0---|
A|---2---|
E|---3---|


*1
e|-0-0-0-0-0-0-0-0-0-0-0-0-0-0-0---|
B|-3-3-3-2-2-2-3-3-3-2-2-2-2-2-2---|
G|-2-2-2-2-2-2-2-2-2-2-2-2-2-2-2---|
D|-2-2-2-2-2-2-2-2-2-2-2-2-2-2-2---|
A|-0-0-0-0-0-0-0-0-0-0-0-0-0-0-0---|
E|---------------------------------|


*2
e|--0-0---0-0---0-0---0-0---0-0-0---|
B|--3-2---3-2---2-3---3-2---2-2-2---|
G|--2-2---2-2---2-2---2-2---2-2-2---|
D|--2-2---2-2---2-2---2-2---2-2-2---|
A|--0-0---0-0---0-0---0-0---0-0-0---|
E|----------------------------------|


*3
e|--2-3-2---|
B|--3-3-3---|
G|--2-2-2---|
D|--0-0-0---|
A|--0-0-0---|
E|----------|






Intro- repeat 3x

e|----5-5-5-5-5-5-5-5-5-5-5-5-5-5-5-------------------------------|
B|----8-8-8-8-8-8-8-8-8-7-7-7-7-8-7----10-10-10-10-10-10-10-10-10-|
G|--------------------------------------7--7--7--7--7--7--7--7--7-|
D|----------------------------------------------------------------|
A|----------------------------------------------------------------|
E|----------------------------------------------------------------|

e|----------------------------------------------------------------|
B|-10-10-10-10-10-10----------------------------------------------|
G|--9--9--9--9--7--9----------------------------------------------|
D|----------------------------------------------------------------|
A|----------------------------------------------------------------|
E|----------------------------------------------------------------|


         *G                  *1
I was a ferris wheel in an empty field where nobody goes
             *G                      *1
Had all the curtains drawn sitting all alone feeling like a ghost
        *G                                      *1
I was a broke down heart-break bad in need of a little of love's electricity 
       *G
A busted carnival ride in the middle of the night
         Asus4           A
Then you flipped a switch, you turned on the show


               Bm            D                    *G
You light me up, like the fireworks flying on the fourth of July
                     Bm          D                   *G
Yeah, you light me up, like a sunshine blazing in the summertime

Oh every time 
            *G   D  *2
You light me up
                 *G   D  *2
Baby you light me up


              *G                   *1
You were the missing piece to my broken dreams

You're bringing me back to life
                *G                     *1
You look like a movie star, just the way you are makes me burn inside
            *G
Yeah, itís a dynamite finally finding a match
A
Baby when you look at me like that


               Bm            D                   *G
You light me up, like the fireworks flying on the fourth of July
                     Bm          D                   *G
Yeah, you light me up, like a sunshine blazing in the summertime

Oh every time 
            *G   D  *2
You light me up
                 *G   D  *2
Baby you light me up

Oh you light me up


Bm, D, *G  x2


*G     D                 A
Like New York City, on New Years Eve

You light me up
*G         D                      A
All the dark days left when you came to me


                     Bm           D                   *G
Baby you light me up, like the fireworks flying on the fourth of July
              Bm           D                 *G
You light me up like a sunshine blazing in the summertime

Oh every time
             Bm
You light me 
            D                   *G
Like the fireworks flying on the fourth of July
                    Bm           D                   *G
Yeah, you light me up, like a sunshine blazing in the summertime 

Baby every time
            *G   D *2
You light me up
                 *G   D  *2
Baby you light me up
                 *G   D   A
Baby you light me up
                *G   D
Oh you light me up
 *3             A
You light me up
Tap to rate this tab
# A B C D E F G H I J K L M N O P Q R S T U V W X Y Z