Song name
# A B C D E F G H I J K L M N O P Q R S T U V W X Y Z

Hunter Hayes - If You Told Me To tab

Tab by: stumac13 Enjoy!

Drop D
Capo 2


intro
---------------0-------------|
------------3-------3--------|
---------2----------------2--|
------0----------0-----0-----|
--0h2------------------------|
-----------------------------|



verse
--------0----------    -----------------|
------------3------    -----------------|
------2----------2-    ---------2-------|
----0-----0----0--- X3 -------0-------0-|
-------------------    ---0h2------0----|
-------------------    -----------------|



Chorus:
--------1-----------------1-----------------2--------------|
-----------2-----------------2------------------2----------|
----------------3------------------3-----2-----------2-----|
----3--------3---------3--------3-----4-----------4--------|
-1-----------------1---------------------------------------|
-----------------------------------------------------------|

--------2------------------3------------------3-------------|
-----------2------------------3------------------3----------|
----2-----------2------3-----------3------3------------3----|
-4------------4-----5-----------5------5------------5-------|
------------------------------------------------------------|
------------------------------------------------------------|

-------0----------------0----------------1------------------|
----------2----------------2-----------------2--------------|
---------------2----------------2-----------------3---------|
----2-------2--------2--------2-------3--------3------------|
-0----------------0-----------------1-----------------------|
------------------------------------------------------------|

------1-----------------2--------------2--------------------|
---------2-----------------2--------------2-------------3---|
---------------3-----2---------2----2----------2------3-----|
---3--------3-----4----------4----4---------4-------5-------|
-1----------------------------------------------------------|
------------------------------------------------------------|

-----------------------------0---------------0--------------|
-------2------3------3-----------2---------------2----------|
----2------0------2-------------------2---------------2-----|
-4-------2------0---------2--------2------2---------2-------|
-----------------------0----------------0-------------------|
------------------------------------------------------------|

--------2---------------------2--------------2--------------|
----------0---------------------3----------------3----------|
----2----------2-----------4---------4----4-----------4-----|
-0----------0-----2--4--5---------5-----5----------5--------|
------------------------------------------------------------|
------------------------------------------------------------|

-------2-----------------------0----------------------------|
---------3-------------------3------3-----------------------|
----4--------4-------------2------------2-------------------|
-5---------5-------------0-------0----0---------------------|
---------------0-------0h2----------------------------------|
------------------------------------------------------------|
this continues into the next verse

...and the verse is repeated a lot.
Tap to rate this tab
# A B C D E F G H I J K L M N O P Q R S T U V W X Y Z