Song name
# A B C D E F G H I J K L M N O P Q R S T U V W X Y Z

Hunter Hayes - Everybodys Got Somebody But Me tab

----------------------------------------------------------------------------
EVERYBODY'S GOT SOMEBODY BUT ME - Hunter Hayes
-----------------------------------------------------------------------------
Tabbed by: emilyboda
E-mail: emilyboda@gmail.com

Tuning: EADGBe

CAPO 3

Chords relative to the capo:
   G   A   D   Bm  Bm7
e|-3---0---3---2---2---------------|
B|-0---2---2---3---3---------------|
G|-0---2---3---4---2---------------|
D|-0---2---0---4---4---------------|
A|-2---0---X---2---2---------------|
E|-3---X---X---X---X---------------|


Intro Tab:
(This tab is relative to the capo)
* is slap strings

e|-5*--*----*--*-5*--*----*--*-5*--*----*--*---------------|
B|----5--3/5-7------5--3/2-3------5--3/5-7------3h5-3p2-3--|
G|-7--6--4/6-7---7--6--4/2-4---7--6--4/6-7---2h4----2---2--|
D|---------------------------------------------------------|
A|---------------------------------------------------------|
E|---------------------------------------------------------|

Chords:
           G             A                 D
I wish the couple on the corner would just get a room
           G        A                   Bm
Seems like everyone around me's on their honeymoon
    G              A          D
I'd love to take a pin to a heart shaped balloon
     G              A          D
Everybody's got somebody but me.

        G                A             D
Well, I don't know how I landed on this movie set
            G                A         Bm
It's like a casting call for Romeo and Juliet
  G                 A             D
I never would have noticed if we'd never met
         G              A           D
But everybody's got somebody but me.

           Bm
And I miss you
   D
Without you I just don't fit in
             Bm
I know we're through
        Bm7
But I'm wishing we could try it again

       G             A          D
I hear love songs playing on the radio
    G           A            Bm
And people slow dancing everywhere I go
           G         A               D
Well I'm a good slow dancer but you'd never know
     G             A           D
Everybody's got somebody but me


Interlude: G  A  D / G  A  Bm / G  A  D / G  A  D

           Bm
And I miss you
   D
Without you I just don't fit in
             Bm
I know we're through
        Bm7
But I'm wishing we could try it again

G            A           D
Sitting here lonely at a table for two
         G             A           Bm
Watching lovers being lovers in the corner booth
     G          A               D
Seems like even Cupid don't know what to do
     G             A           D
Everybody's got somebody but me

     G              A               Bm
Year don't know if I'll ever find another you
        G           A         D
But everybody's got somebody but me



And that's it!
Let me know if you think there are any mistakes, especially if there anyone figures out 
exactly what the last chord in the chorus is, I'm not sure if the chord I put is right.

************************************

| /   slide up
| \   slide down
| h   hammer-on
| p   pull-off
| ~   vibrato
| +   harmonic
| x   Mute note
| b   Bend
| pb  Pre-bend
| br  Bend release
| pbr Pre-bend release
| brb Bend release bend

************************************
Tap to rate this tab
# A B C D E F G H I J K L M N O P Q R S T U V W X Y Z