Song name
# A B C D E F G H I J K L M N O P Q R S T U V W X Y Z

Hunter Revenge - Whos Gonna Love You Now tab

-------------------------------------------------------------------------------
                 Who's Gonna Love You Now? - Hunter Revenge
-------------------------------------------------------------------------------
Tabbed by: Johnny-go-go

Tuning: Standard EADGBe

This is 100% accurate. I watched him play it on three different videos and pieced it 
Hunter Revenge's official website: http://www.hunterrevenge.com/

Intro/Verse
e|-----------------|
B|-----------------|
G|-1-----------111-|  x3
D|-2-6-444-4-6-222-|
A|-2-6-444-4-6-222-|
E|-0-4-222-2-4-000-|


Pre-Chorus
e|-----------------|
B|-----------------|
G|-1-----------111-|  x2
D|-2-6-444-4-6-222-|
A|-2-6-444-4-6-222-|
E|-0-4-222-2-4-000-|


Chorus
Guitar 1 (Hunter)
e|----------------------------------------------------|
B|----------------------------------------------------|
G|----------------------------------------------------|  x4
D|-6666-8888-9999-4444-9999-11111111-1212121212121212-|
A|-6666-8888-9999-4444-9999-11111111-1212121212121212-|
E|-4444-6666-7777-2222-7777--9-9-9-9-1010101010101010-|

Guitar 2
e|--------------------------------------|
B|--------------------------------------|
G|--------------------------------------|   x4
D|-6666-8888-9999-4444-2222222222222222-|
A|-6666-8888-9999-4444-2222222222222222-|
E|-4444-6666-7777-2222-0000000000000000-|


Verse
e|-----------------|
B|-----------------|
G|-1-----------111-|  x3
D|-2-6-444-4-6-222-|
A|-2-6-444-4-6-222-|
E|-0-4-222-2-4-000-|


Pre-Chorus
e|-----------------|
B|-----------------|
G|-1-----------111-|  x2
D|-2-6-444-4-6-222-|
A|-2-6-444-4-6-222-|
E|-0-4-222-2-4-000-|


Chorus
Guitar 1 (Hunter)
e|----------------------------------------------------|
B|----------------------------------------------------|
G|----------------------------------------------------|  x4
D|-6666-8888-9999-4444-9999-11111111-1212121212121212-|
A|-6666-8888-9999-4444-9999-11111111-1212121212121212-|
E|-4444-6666-7777-2222-7777--9-9-9-9-1010101010101010-|

Guitar 2
e|--------------------------------------|
B|--------------------------------------|
G|--------------------------------------|   x4
D|-6666-8888-9999-4444-2222222222222222-|
A|-6666-8888-9999-4444-2222222222222222-|
E|-4444-6666-7777-2222-0000000000000000-|


Bridge
e|------------------------------------|
B|------------------------------------|
G|--------4444444/6-1111111-----------|   x4
D|-4xx4/6-4444444/6-2222222--99-8-4-6-|
A|-4xx4/6-2222222/4-2222222--99-8-4-6-|
E|-2xx2/4-----------0000000--77-6-2-4-|


Verse
e|-----------------|
B|-----------------|
G|-1-----------111-|  x2
D|-2-6-444-4-6-222-|
A|-2-6-444-4-6-222-|
E|-0-4-222-2-4-000-|


Pre-Chorus
e|-----------------|
B|-----------------|
G|-1-----------111-|  x2
D|-2-6-444-4-6-222-|
A|-2-6-444-4-6-222-|
E|-0-4-222-2-4-000-|


Chorus
Guitar 1 (Hunter)
e|----------------------------------------------------|
B|----------------------------------------------------|
G|----------------------------------------------------|  x4
D|-6666-8888-9999-4444-9999-11111111-1212121212121212-|
A|-6666-8888-9999-4444-9999-11111111-1212121212121212-|
E|-4444-6666-7777-2222-7777--9-9-9-9-1010101010101010-|

Guitar 2
e|--------------------------------------|
B|--------------------------------------|
G|--------------------------------------|   x4
D|-6666-8888-9999-4444-2222222222222222-|
A|-6666-8888-9999-4444-2222222222222222-|
E|-4444-6666-7777-2222-0000000000000000-|


End
e|----------|
B|----------|
G|----------|
D|-4---4444-|
A|-4---4444-|
E|-2---2222-|

| /  slide up
| \  slide down
| h  hammer-on
| p  pull-off
| ~  vibrato
| +  harmonic
| x  Mute note
============================================================
Tap to rate this tab
 
# A B C D E F G H I J K L M N O P Q R S T U V W X Y Z