Song name
# A B C D E F G H I J K L M N O P Q R S T U V W X Y Z

Hunter Valentine - Barbara Jean tab

Barbara Jean

You have to figure out the rhythm of the song.


Intro:

e:---------------------------------------------------------------------------|
B:---------------------------------------------------------------------------|
G:---------------------------------------------------------------------------|
D:---8-6-4---8-11-4---8-6-4-6------------------------------------------------|
A:---6-4-2---6--9-2---6-4-2-4------------------------------------------------|
E:---6-4-2---6--9-2---6-4-2-4------------------------------------------------|

You have to figure out the rhythm of the song.

Verse and Chourus

e:---------------------------------------------------------------------------|
B:---------------------------------------------------------------------------|
G:---------------------------------------------------------------------------|
D:---8-6-4-6------------------4x---------------------------------------------|
A:---6-4-2-4-----------------------------------------------------------------|
E:---6-4-2-4-----------------------------------------------------------------|

3.Verse

e:---------------------------------------------------------------------------|
B:---------------------------------------------------------------------------|
G:---------------------------------------------------------------------------|
D:---8-6-4-6------------------4x---------------------------------------------|
A:---6-4-2-4-----------------------------------------------------------------|
E:---6-4-2-4-----------------------------------------------------------------|

Outro:
e:---------------------------------------------------------------------------|
B:---------------------------------------------------------------------------|
G:---------------------------------------------------------------------------|
D:---8-6-4---8-11-4---8-6-4--------------------------------------------------|
A:---6-4-2---6--9-2---6-4-2--------------------------------------------------|
E:---6-4-2---6--9-2---6-4-2--------------------------------------------------|
Tap to rate this tab
# A B C D E F G H I J K L M N O P Q R S T U V W X Y Z