Song name
# A B C D E F G H I J K L M N O P Q R S T U V W X Y Z

Hunter Valentine - Staten Island Dream Tour tab

This song is in standart tuning
Caop 3


The Intro:

e:-------------------------------------------------------|
B:-------------3-3----------------------3-3--------------|
G:-------5-5---------5-5----------5-5---------5-5--------|
D:---5-------5-----5-----5----5-------5-----5-----5------|
A:-3---3--------------------3---3------------------------|
E:-------------------------------------------------------|

e:-------------3-3---------------------------------------|
B:-------4-4---------4-4---------1----------1------1-----|
G:-----------5-----5-----5---2-0---0-2--2-0---0-2--2-----|
D:---5---------------------------------------------------|
A:-3---3-------------------------------------------------|
E:-------------------------------------------------------|


Verse 1: palm mute

e:-------------------------------------------------------|
B:-------------------------------------------------------|
G:-5-----------------------------------------------------|
D:-5--16x--5-------7-------3-----------------------------|
A:-3-------5--16x--7--16x--3--16x------------------------|
E:---------3-------5-------1-----------------------------|

Brige: palm mute

e:-------------------------------------------------------|
B:-------------------------------------------------------|
G:-5-----------------------------------------------------|
D:-5--16x--5-------7-------3-----------------------------|
A:-3-------5--16x--7--16x--3--16x------------------------|
E:---------3-------5-------1-----------------------------|

Chourus:

e:-------------------------------------------------------|
B:-------------------------------------------------------|
G:-5-----------------------------------------------------|
D:-5--16x--5-------7-------3-----------------------------|
A:-3-------5--16x--7--16x--3--16x------------------------|
E:---------3-------5-------1-----------------------------|


Verse 2+3: palm mute

e:-------------------------------------------------------|
B:-------------------------------------------------------|
G:-5-----------------------------------------------------|
D:-5--16x--5-------7-------3----------------2x-----------|
A:-3-------5--16x--7--16x--3--16x------------------------|
E:---------3-------5-------1-----------------------------|

Brige 2: palm mute

e:-------------------------------------------------------|
B:-------------------------------------------------------|
G:-5-----------------------------------------------------|
D:-5--16x--5-------7-------3-----------------------------|
A:-3-------5--16x--7--16x--3--16x------------------------|
E:---------3-------5-------1-----------------------------|

Chourus:

e:-------------------------------------------------------|
B:-------------------------------------------------------|
G:-5-----------------------------------------------------|
D:-5--16x--5-------7-------3---------------2x------------|
A:-3-------5--16x--7--16x--3--16x------------------------|
E:---------3-------5-------1-----------------------------|
Tap to rate this tab
# A B C D E F G H I J K L M N O P Q R S T U V W X Y Z