Song name
# A B C D E F G H I J K L M N O P Q R S T U V W X Y Z

Hunter Valentine - Jimmy Dean tab

----------------------------------------------------------------------------
                             Jimmy Dean - Hunter Valentine
----------------------------------------------------------------------------


Tuning: Standard

Verse:

e|-----------------------------------------|
B|-----------------------------------------|
G|----------6------4-------4--4--4---------|
D|--4-------6-x8---4-x6----4--4--4---------|
A|--4-x16---4------2-------2--2--2---------|
E|--2--------------------------------------|
    pm*******************|

Chorus:

e|-------------------------------------------------------------------------|
B|-------------------------------------------------------------------------|
G|-----------------4-------------------------------------------------------|
D|--4-------6------4--x8---------------------------------------------------|
A|--4-x16---6-x8---2-------------------------------------------------------|
E|--2-------4--------------------------------------------------------------|
Tap to rate this tab
# A B C D E F G H I J K L M N O P Q R S T U V W X Y Z