Song name
# A B C D E F G H I J K L M N O P Q R S T U V W X Y Z

Hunter Valentine - The Great Canadian Love Song tab

-------------------------------------------------------------------------------
                             The Great Canadian Love Song - Hunter Valentine
-------------------------------------------------------------------------------
Tabbed by: Cmlawson1
E-mail:

Tuning: Standard

e|------------------------------------|------------------------------------------|
b|-1--------1--------1--------1-------|-3------1-------3--------1----------------|
g|-0--------2--------0--------2-------|-4------2-------4--------2----------------|
d|-2--------2-*pm----2--------2-*pm---|-4-*pm--2-*pm--4-*pm---2-*pm--------------|
a|-3-*pm-------------3-*pm------------|------------------------------------------|
e|------------------------------------|------------------------------------------|

Chorus:

e|----------------------------------3------------------------------------|
b|------------------1---------------3------------------------------------|
g|------------------0---------------0------------------------------------|
d|--3---------------2---------------0------------------------------------|
a|--3---------------3-*pm-----------2------------------------------------|
e|--1-*pm---------------------------3-*pm--------------------------------|

e|--0---0----0---0--------------|-------------|
b|----3---3----1----1-----------|--1-1-1------|
g|-------------------------X2---|--2-2-2------|
d|------------------------------|--2-2-2------|
a|------------------------------|-------------|
e|------------------------------|-------------|


Listen to the song to figure out the strumming patterns.
Tabbed directly from this live performance: http://www.youtube.com/watch?v=8dljiAgpidc
Tap to rate this tab
# A B C D E F G H I J K L M N O P Q R S T U V W X Y Z