Song name
# A B C D E F G H I J K L M N O P Q R S T U V W X Y Z

Hunter Valentine - Revenge tab

-----------------------------------------------------------------------------
                             REVENGE - HUNTER VALENTINE
-----------------------------------------------------------------------------
Tabbed by: MyZombieFish
E-mail: Katleen1994@hotmail.com

Tuning: Standard

verse 1: 
e|---x---x---x----|
B|---x---x---x----|
G|---x---x---x----|
D|---10--9---10---|
A|---10--9---10---|
E|---8---7---8----|

Chorus:
e|---x---x---x---x---x---x---x---x---x---x---x---x---|
B|---x---x---x---x---x---x---x---x---x---x---x---x---|
G|---5---x---7---9---7---5---x---7---x---x---x---x---|
D|---5---5---7---9---7---5---5---7---10--9---10--9---|
A|---3---5---5---7---5---3---5---5---10--9---10--9---|
E|---x---3---x---x---x---x---3---x---8---7---8---7---|

Verse 2
e|---x---x---x---x---x---x---x---x---x---x---|
B|---x---x---x---x---x---x---x---x---x---x---|
G|---x---4---7---x---4---7---x---x---x---x---|
D|---2---4---7---2---4---7---10--9--10---9---|
A|---2---2---5---2---2---5---10--9--10---9---|
E|---0---x---x---0---x---x---8---7---8---7---|

Chorus:
e|---x---x---x---x---x---x---x---x---x---x---x---x---|
B|---x---x---x---x---x---x---x---x---x---x---x---x---|
G|---5---x---7---9---7---5---x---7---x---x---x---x---|
D|---5---5---7---9---7---5---5---7---10--9---10--9---|
A|---3---5---5---7---5---3---5---5---10--9---10--9---|
E|---x---3---x---x---x---x---3---x---8---7---8---7---|

Bridge:
e|---x---x---x---x---x---x---x---x---x---x---x---x---x---x---x---x---|
B|---x---x---x---x---x---x---x---x---x---x---x---x---x---x---x---x---|
G|---9---8---7---6---7---8---9---8---7---6---7---8---9---8---7---6---|
D|---9---8---7---6---7---8---9---8---7---6---7---8---9---8---7---6---|
A|---7---6---5---4---5---6---7---6---5---4---5---6---7---6---5---4---|
E|---x---x---x---x---x---x---x---x---x---x---x---x---x---x---x---x---|

e|---x---x---x---x---x---x---x---x---x---x---|
B|---x---x---x---x---x---x---x---x---x---x---|
G|---9---8---7---6---9---8---7---6---5---x---|
D|---9---8---7---6---9---8---7---6---5---9---|
A|---7---6---5---4---7---6---5---4---3---9---|
E|---x---x---x---x---x---x---x---x---x---7---|

Chorus:
e|---x---x---x---x---x---x---x---x---x---x---x---x---|
B|---x---x---x---x---x---x---x---x---x---x---x---x---|
G|---5---x---7---9---7---5---x---7---x---x---x---x---|
D|---5---5---7---9---7---5---5---7---10--9---10--9---|
A|---3---5---5---7---5---3---5---5---10--9---10--9---|
E|---x---3---x---x---x---x---3---x---8---7---8---7---|

outro:
e|---x---x---x---x---x---x---x---x---x---x---|
B|---x---x---x---x---x---x---x---x---x---x---|
G|---9---8---7---6---7---8---9---8---7---6---|
D|---9---8---7---6---7---8---9---8---7---6---|
A|---7---6---5---4---5---6---7---6---5---4---|
E|---x---x---x---x---x---x---x---x---x---x---|
Tap to rate this tab
# A B C D E F G H I J K L M N O P Q R S T U V W X Y Z