Song name
# A B C D E F G H I J K L M N O P Q R S T U V W X Y Z

Hunters And Collectors - Holy Grail tab

Hunters and Collectors – Holy Grail
Tuning:Standard
       Piano                      
e|-----7-5-4-2-0-0-0-0-2-----|              
B|---5-----------------------|              
G|-4-------------------------|              
D|---------------------------|              
A|---------------------------|              
E|---------------------------|              
   
   
e|-0-0-----------------------------------|
B|-0-0-x-x-x-x-2-2-----------------------|
G|-1-1-x-x-x-x-2-2----6-6-x-x-x-x-4-4----| x2
D|-2-2-x-x-x-x-2-2----6-6-x-x-x-x-4-4----|
A|-2-2---------0-0----4-4-x-x-x-x-2-2----|
E|-0-0-----------------------------------|


e|-0-0-----------------------------------|
B|-0-0-x-x-x-x-2-2-----------------------|
G|-1-1-x-x-x-x-2-2----6-6-x-x-x-x-4-4----| 
D|-2-2-x-x-x-x-2-2----6-6-x-x-x-x-4-4----|
A|-2-2---------0-0----4-4-x-x-x-x-2-2----|
E|-0-0-----------------------------------| 
Woke up this morning n the strangest dream 


e|-0-0-----------------------------------|
B|-0-0-x-x-x-x-2-2-----------------------|
G|-1-1-x-x-x-x-2-2----6-6-x-x-x-x-4-4----| 
D|-2-2-x-x-x-x-2-2----6-6-x-x-x-x-4-4----|
A|-2-2---------0-0----4-4-x-x-x-x-2-2----|
E|-0-0-----------------------------------|
I was in the biggest army the world has ever seen

                                    
e|-0-0-----------------------------------|
B|-0-0-x-x-x-x-2-2-----------------------|
G|-1-1-x-x-x-x-2-2----6-6-x-x-x-x-4-4----| 
D|-2-2-x-x-x-x-2-2----6-6-x-x-x-x-4-4----|
A|-2-2---------0-0----4-4-x-x-x-x-2-2----|
E|-0-0-----------------------------------|
   We were marching as one on the road to the holy grail

e|-0-0-----------------------------------|
B|-0-0-x-x-x-x-2-2-----------------------|
G|-1-1-x-x-x-x-2-2----6-6-x-x-x-x-4-4----| 
D|-2-2-x-x-x-x-2-2----6-6-x-x-x-x-4-4----|
A|-2-2---------0-0----4-4-x-x-x-x-2-2----|
E|-0-0-----------------------------------|


e|-0-0-----------------------------------|
B|-0-0-x-x-x-x-2-2-----------------------|
G|-1-1-x-x-x-x-2-2----6-6-x-x-x-x-4-4----| 
D|-2-2-x-x-x-x-2-2----6-6-x-x-x-x-4-4----|
A|-2-2---------0-0----4-4-x-x-x-x-2-2----|
E|-0-0-----------------------------------|
   Started out seeking for fortunate glory  
   

e|-0-0-----------------------------------|
B|-0-0-x-x-x-x-2-2-----------------------|
G|-1-1-x-x-x-x-2-2----6-6-x-x-x-x-4-4----| 
D|-2-2-x-x-x-x-2-2----6-6-x-x-x-x-4-4----|
A|-2-2---------0-0----4-4-x-x-x-x-2-2----|
E|-0-0-----------------------------------|
it’s a short song but hell of a story
                            

e|-0-0-----------------------------------|
B|-0-0-x-x-x-x-2-2-----------------------|
G|-1-1-x-x-x-x-2-2----6-6-x-x-x-x-4-4----| 
D|-2-2-x-x-x-x-2-2----6-6-x-x-x-x-4-4----|
A|-2-2---------0-0----4-4-x-x-x-x-2-2----|
E|-0-0-----------------------------------|
    When you spend your life time trying to get your hands on the holy grail

e|-0-0-----------------------------------|
B|-0-0-x-x-x-x-2-2-----------------------|
G|-1-1-x-x-x-x-2-2----6-6-x-x-x-x-4-4----| 
D|-2-2-x-x-x-x-2-2----6-6-x-x-x-x-4-4----|
A|-2-2---------0-0----4-4-x-x-x-x-2-2----|
E|-0-0-----------------------------------|


e|-0-0-----------------------------------|
B|-0-0-x-x-x-x-2-2-----------------------|
G|-1-1-x-x-x-x-2-2----6-6-x-x-x-x-4-4----| 
D|-2-2-x-x-x-x-2-2----6-6-x-x-x-x-4-4----|
A|-2-2---------0-0----4-4-x-x-x-x-2-2----|
E|-0-0-----------------------------------|
  Well have you heard about the great crusade 

e|-0-0-----------------------------------|
B|-0-0-x-x-x-x-2-2-----------------------|
G|-1-1-x-x-x-x-2-2----6-6-x-x-x-x-4-4----| 
D|-2-2-x-x-x-x-2-2----6-6-x-x-x-x-4-4----|
A|-2-2---------0-0----4-4-x-x-x-x-2-2----|
E|-0-0-----------------------------------|
we ran into millions but nobody got paid
                                    
                                     
e|-0-0-----------------------------------|
B|-0-0-x-x-x-x-2-2-----------------------|
G|-1-1-x-x-x-x-2-2----6-6-x-x-x-x-4-4----| 
D|-2-2-x-x-x-x-2-2----6-6-x-x-x-x-4-4----|
A|-2-2---------0-0----4-4-x-x-x-x-2-2----|
E|-0-0-----------------------------------|
   Yeah We raised four corners of the globe for the holy grail
   
e|-0-0-----------------------------------|
B|-0-0-x-x-x-x-2-2-----------------------|
G|-1-1-x-x-x-x-2-2----6-6-x-x-x-x-4-4----| 
D|-2-2-x-x-x-x-2-2----6-6-x-x-x-x-4-4----| x2
A|-2-2---------0-0----4-4-x-x-x-x-2-2----|
E|-0-0-----------------------------------|




e|-0-0-----------------------------------|
B|-0-0-x-x-x-x-2-2-----------------------|
G|-1-1-x-x-x-x-2-2----6-6-x-x-x-x-4-4----| 
D|-2-2-x-x-x-x-2-2----6-6-x-x-x-x-4-4----|
A|-2-2---------0-0----4-4-x-x-x-x-2-2----|
E|-0-0-----------------------------------|
    All the locals scattered they were hiding in the snow 

e|-0-0-----------------------------------|
B|-0-0-x-x-x-x-2-2-----------------------|
G|-1-1-x-x-x-x-2-2----6-6-x-x-x-x-4-4----| 
D|-2-2-x-x-x-x-2-2----6-6-x-x-x-x-4-4----|
A|-2-2---------0-0----4-4-x-x-x-x-2-2----|
E|-0-0-----------------------------------|
    We were so far from home so how would we know   

e|-0-0-----------------------------------|
B|-0-0-x-x-x-x-2-2-----------------------|
G|-1-1-x-x-x-x-2-2----6-6-x-x-x-x-4-4----| 
D|-2-2-x-x-x-x-2-2----6-6-x-x-x-x-4-4----|
A|-2-2---------0-0----4-4-x-x-x-x-2-2----|
E|-0-0-----------------------------------|
   There be nothing left to plunder  When we stumble on the holy grail

e|-0-0-----------------------------------|
B|-0-0-x-x-x-x-2-2-----------------------|
G|-1-1-x-x-x-x-2-2----6-6-x-x-x-x-4-4----| 
D|-2-2-x-x-x-x-2-2----6-6-x-x-x-x-4-4----|
A|-2-2---------0-0----4-4-x-x-x-x-2-2----|
E|-0-0-----------------------------------|
                           
e|-0-0-----------------------------------|
B|-0-0-x-x-x-x-2-2-----------------------|
G|-1-1-x-x-x-x-2-2----6-6-x-x-x-x-4-4----| 
D|-2-2-x-x-x-x-2-2----6-6-x-x-x-x-4-4----|
A|-2-2---------0-0----4-4-x-x-x-x-2-2----|
E|-0-0-----------------------------------|
We were full of beans But we were dying like flies

e|-0-0-----------------------------------|
B|-0-0-x-x-x-x-2-2-----------------------|
G|-1-1-x-x-x-x-2-2----6-6-x-x-x-x-4-4----| 
D|-2-2-x-x-x-x-2-2----6-6-x-x-x-x-4-4----|
A|-2-2---------0-0----4-4-x-x-x-x-2-2----|
E|-0-0-----------------------------------|
   And those big black birds, they were circling in the sky 

e|-0-0-----------------------------------|
B|-0-0-x-x-x-x-2-2-----------------------|
G|-1-1-x-x-x-x-2-2----6-6-x-x-x-x-4-4----| 
D|-2-2-x-x-x-x-2-2----6-6-x-x-x-x-4-4----|
A|-2-2---------0-0----4-4-x-x-x-x-2-2----|
E|-0-0-----------------------------------|
And you know what they say, yeah, nobody deserves to die
   





e|-0-0-----------------------------------|
B|-0-0-x-x-x-x-2-2-----------------------|
G|-1-1-x-x-x-x-2-2----6-6-x-x-x-x-4-4----| 
D|-2-2-x-x-x-x-2-2----6-6-x-x-x-x-4-4----|
A|-2-2---------0-0----4-4-x-x-x-x-2-2----|
E|-0-0-----------------------------------|


You know I, I've been searching for an easy way
To escape the cold light of day
I've been high and I've been low
But I've nowhere else to go

There's nowhere else to go





   
e|-0-0-----------------------------------|
B|-0-0-x-x-x-x-2-2-----------------------|
G|-1-1-x-x-x-x-2-2----6-6-x-x-x-x-4-4----| 
D|-2-2-x-x-x-x-2-2----6-6-x-x-x-x-4-4----|
A|-2-2---------0-0----4-4-x-x-x-x-2-2----|
E|-0-0-----------------------------------|
Piano
e|--------7--5--4--2--0--0--0--0--2------|
B|-----5---------------------------------|
G|--4------------------------------------|
D|---------------------------------------|
A|---------------------------------------|
E|---------------------------------------|


e|-0-0-----------------------------------|
B|-0-0-x-x-x-x-2-2-----------------------|
G|-1-1-x-x-x-x-2-2----6-6-x-x-x-x-4-4----| 
D|-2-2-x-x-x-x-2-2----6-6-x-x-x-x-4-4----|
A|-2-2---------0-0----4-4-x-x-x-x-2-2----|
E|-0-0-----------------------------------|
Piano
e|--------7--5--4--2--4--0--0--0--2------|
B|-----5---------------------------------|
G|--4------------------------------------|
D|---------------------------------------|
A|---------------------------------------|
E|---------------------------------------|



e|-0-0-----------------------------------|
B|-0-0-x-x-x-x-2-2-----------------------|
G|-1-1-x-x-x-x-2-2----6-6-x-x-x-x-4-4----| 
D|-2-2-x-x-x-x-2-2----6-6-x-x-x-x-4-4----|
A|-2-2---------0-0----4-4-x-x-x-x-2-2----|
E|-0-0-----------------------------------|
   And I've followed orders  God knows where I've been
   

e|-0-0-----------------------------------|
B|-0-0-x-x-x-x-2-2-----------------------|
G|-1-1-x-x-x-x-2-2----6-6-x-x-x-x-4-4----| 
D|-2-2-x-x-x-x-2-2----6-6-x-x-x-x-4-4----|
A|-2-2---------0-0----4-4-x-x-x-x-2-2----|
E|-0-0-----------------------------------|
But I woke up alone      All my wounds were clean
                                                                 
e|-0-0-----------------------------------|
B|-0-0-x-x-x-x-2-2-----------------------|
G|-1-1-x-x-x-x-2-2----6-6-x-x-x-x-4-4----| 
D|-2-2-x-x-x-x-2-2----6-6-x-x-x-x-4-4----|
A|-2-2---------0-0----4-4-x-x-x-x-2-2----|
E|-0-0-----------------------------------|
   I'm still here I'm still a fool for the holy grail





e|-0-0-----------------------------------|
B|-0-0-x-x-x-x-2-2-----------------------|
G|-1-1-x-x-x-x-2-2----6-6-x-x-x-x-4-4----|x2 
D|-2-2-x-x-x-x-2-2----6-6-x-x-x-x-4-4----|
A|-2-2---------0-0----4-4-x-x-x-x-2-2----|
E|-0-0-----------------------------------|
Piano
e|-----7-5-4-2-0-0-0-0-2--------7-5-4-2-4-0-0-0-2--|
B|---5------------------------5--------------------|
G|-4------------------------4----------------------|
D|-------------------------------------------------|
A|-------------------------------------------------|
E|-------------------------------------------------|

                           
e|-0-0-----------------------------------|
B|-0-0-x-x-x-x-2-2-----------------------|
G|-1-1-x-x-x-x-2-2----6-6-x-x-x-x-4-4----| 
D|-2-2-x-x-x-x-2-2----6-6-x-x-x-x-4-4----|
A|-2-2---------0-0----4-4-x-x-x-x-2-2----|
E|-0-0-----------------------------------|
Oh yeah I'm a fool for the holy grail
Piano
e|-----7-5-4-2-0-0-0-0-2--------7-5-4-2-4-0-0-0-2--|
B|---5------------------------5--------------------|
G|-4------------------------4----------------------|
D|-------------------------------------------------|
A|-------------------------------------------------|
E|-------------------------------------------------|


e|-0-0-----------------------------------|
B|-0-0-x-x-x-x-2-2-----------------------|
G|-1-1-x-x-x-x-2-2----6-6-x-x-x-x-4-4----| 
D|-2-2-x-x-x-x-2-2----6-6-x-x-x-x-4-4----|
A|-2-2---------0-0----4-4-x-x-x-x-2-2----|
E|-0-0-----------------------------------|
Piano
e|--------7--5--4--2--0--0--0--0--2------|
B|-----5---------------------------------|
G|--4------------------------------------|
D|---------------------------------------|
A|---------------------------------------|
E|---------------------------------------|


e|-0-0-----------------------------------|
B|-0-0-x-x-x-x-2-2-----------------------|
G|-1-1-x-x-x-x-2-2----6-6-x-x-x-x-4-4----| 
D|-2-2-x-x-x-x-2-2----6-6-x-x-x-x-4-4----|
A|-2-2---------0-0----4-4-x-x-x-x-2-2----|
E|-0-0-----------------------------------|
Piano
e|--------7--5--4--2--4--0--0--0--2------|
B|-----5---------------------------------|
G|--4------------------------------------|
D|---------------------------------------|
A|---------------------------------------|
E|---------------------------------------|



e|-0-0-----------------------------------|
B|-0-0-x-x-x-x-2-2-----------------------|
G|-1-1-x-x-x-x-2-2----6-6-x-x-x-x-4-4----| 
D|-2-2-x-x-x-x-2-2----6-6-x-x-x-x-4-4----|
A|-2-2---------0-0----4-4-x-x-x-x-2-2----|
E|-0-0-----------------------------------|
Piano
e|--------7--5--4--2--0--0--0--0--2------|
B|-----5---------------------------------|
G|--4------------------------------------|
D|---------------------------------------|
A|---------------------------------------|
E|---------------------------------------|


e|-0-0-----------------------------------|
B|-0-0-x-x-x-x-2-2-----------------------|
G|-1-1-x-x-x-x-2-2----6-6-x-x-x-x-4-4----| 
D|-2-2-x-x-x-x-2-2----6-6-x-x-x-x-4-4----|
A|-2-2---------0-0----4-4-x-x-x-x-2-2----|
E|-0-0-----------------------------------|
Piano
e|--------7--5--4--2--4--0--0--0--2------|
B|-----5---------------------------------|
G|--4------------------------------------|
D|---------------------------------------|
A|---------------------------------------|
E|---------------------------------------|

Ive been playing 2 months and i got this so if you really try u can get it

Nathan 
Tap to rate this tab
# A B C D E F G H I J K L M N O P Q R S T U V W X Y Z