Song name
# A B C D E F G H I J K L M N O P Q R S T U V W X Y Z

Huntingtons - The Last Time That You Left tab

Song: The Last Time That You Left
Artist: The Huntingtons
Album: Songs in the Key of You
(C) 2001 We Own Your Songs, Inc (SESAC)

Chords Used:

  G   C   B   E   D   e
e---|---|---|---|---|---|
B---|---|---|---|---|---|
G---|-5-|-4-|---|-7-|-9-|
D-5-|-5-|-4-|-2-|-7-|-9-|
A-5-|-3-|-2-|-2-|-5-|-7-|
E-3-|---|---|-0-|---|---|

You'll need to listen to the CD to get the correct rhythm and timing.

Intro:

G C

e-------------------------------|
B-------------------------------|
G-------------------------------|
D--5---4------------------------|
A----------5---3----5---3---2---|
E-------------------------------|

Verse:

G B E C

Prechorus:

D C

Chorus:

G D C D

Bridge:

e C G 3x

E B C D

Outro:

G C D

e------------------------------------------------------------------------|
B------------------------------------------------------------------------|
G------------------------------------------------------------------------|
D--5---4-------5---4---------------------------4---5---5/7---5---4---5---|
A----------5-----------5---3---5---3---2---5-----------------------------|
E------------------------------------------------------------------------|
Tap to rate this tab
# A B C D E F G H I J K L M N O P Q R S T U V W X Y Z