Song name
# A B C D E F G H I J K L M N O P Q R S T U V W X Y Z

Huntingtons - Blue Moon Diner tab

Rhythm guitar:
e-------------------------------------------------|2x
B-------------------------------------------------|
G-------------------------5-5-5-5-5-5-7-7-7-7-7-7-|
D-5-5-5-5-5---1-1-1-1-1-1-5-5-5-5-5-5-7-7-7-7-7-7-|
A-5-5-5-5-5---1-1-1-1-1-1-3-3-3-3-3-3-5-5-5-5-5-5-|
E-3-3-3-3-3-2-0-0-0-0-0-0-------------------------|

e------------------------    ------------------------|
B------------------------    ------------------------|
G-5-5-5-5-5-5------------    7-7-7-7-7-7-7-7-7-7-7-7-|
D-5-5-5-5-5-5-5-5-5-5-5-5    7-7-7-7-7-7-7-7-7-7-7-7-|
A-3-3-3-3-3-3-5-5-5-5-5-5    5-5-5-5-5-5-5-5-5-5-5-5-|
E-------------3-3-3-3-3-3(2x)------------------------|

Lead:
e-----------------------------------------------------|
B-3~~~---3-5-3---3-----3-5-3---3----------------------|
G-----5--------5-----5-------5---5-4~---2h4-5p4-2-2h0-|
D-----------------------------------------------------|
A-----------------------------------------------------|
E-----------------------------------------------------|
note: when the rhythm guitar goes to the cgcg part, the lead strums the full chord once
Tap to rate this tab
# A B C D E F G H I J K L M N O P Q R S T U V W X Y Z