Song name
# A B C D E F G H I J K L M N O P Q R S T U V W X Y Z

Huntingtons - Really Really tab

Song: Really, Really
Artist: The Huntingtons
Album: Songs in the Key of You
Tabbed By: Caleb M. (caleb_m2000@hotmail.com)

Use power chords.

Intro

G-C-G-C-G-C-G-D
G-C-G-C-G-C-D

E ----------------------------------|
B --10-7----------------------------|
G -------9-7------------------------|
D ----------------------------------|
A ----------------------------------|
E ----------------------------------|

Verse

G-C-G-C-D-C-D-C-D

Chorus

G-C-B-e-C-D

Followed by the latter part of the intro.

Solo

E --------------7-5--5-7-8-7-5-3----|
B --12-10-8-7-5------------------5--|
G ----------------------------------|
D ----------------------------------|
A ----------------------------------|
E ----------------------------------|

E --------------7-5--3--------------|
B --12-10-8-7-5--------5-3----------|
G ----------------------------------|
D ----------------------------------|
A ----------------------------------|
E ----------------------------------|

E --------------7-5--5-7-10-8-7-5-3-5-7-5--7-8-7-5-7p5-7p5-7p5-3-------|
B --12-10-8-7-5--------------------------------------------------7-5-3-|
G ---------------------------------------------------------------------|
D ---------------------------------------------------------------------|
A ---------------------------------------------------------------------|
E ---------------------------------------------------------------------|

With these chords:

C-D-B-e
C-D-G
C-D-B-e
C-D
Tap to rate this tab
 
# A B C D E F G H I J K L M N O P Q R S T U V W X Y Z