Song name
# A B C D E F G H I J K L M N O P Q R S T U V W X Y Z

Huntingtons - That Guy Stole My Girl tab

Song: That Guy Stole My Girl
Artist: The Huntingtons
Album: Songs in the Key of You
Tabbed By: Caleb M. (caleb_m2000@hotmail.com)

Use power chords.

Intro

C# D# F# G# x2

           x3                
E ---------|----------------|
B -7-6-4---|-----4----------|
G -------6-|-5-6---5--------|
D ---------|----------------|
A ---------|----------------|
E ---------|----------------|

Verse

C# D# F# G# x2

Pre-chorus

A# F# G# x3

Chorus

C# A# F# A# G# x3

C# D# F#

Followed by the intro.

Solo

A# G# F# x2
                       
E -------------------------------------------------------|
B -7-6-4-7-6-4-----------4-6-7-6-4-9-7-6---------4-6-4---|
G -------------6-5-6-5-6-----------------6-5-6-5-------6-|
D -------------------------------------------------------|
A -------------------------------------------------------|
E -------------------------------------------------------|

Bridge

C# G# A# G# F# x2
Tap to rate this tab
# A B C D E F G H I J K L M N O P Q R S T U V W X Y Z