Song name
# A B C D E F G H I J K L M N O P Q R S T U V W X Y Z

Huntingtons - Enchantment Under The Sea tab

Song: Enchantment Under the Sea
Artist: The Huntingtons
Album: Songs in the Key of You
Tabbed By: Caleb M. (caleb_m2000@hotmail.com)

Use power chords.

Intro x4

G D C D
                        
E ---------------|
B ---------------|
G ---------------|
D -5-5-5-5-4-----|
A -----------5---|
E ---------------|

Verse

G C E D x2

G C e D

G C D

Pre-chorus

C D e D C D

Chorus

G E C D

Followed by the intro.

Solo

Play E directly after the chorus then into the solo.

C G x2
               x3          
E -------------|-----------------|
B -------------|-----------------|
G -------------|-4-4-2-2-0-0-----|
D ---5-5-5-4-4-|-------------4-4-|
A -5-----------|-----------------|
E -------------|-----------------|

Bridge x2

E C G D

E C D

After the last chorus, right before it goes back in the intro,
the chords are E C D
Tap to rate this tab
# A B C D E F G H I J K L M N O P Q R S T U V W X Y Z