Song name
# A B C D E F G H I J K L M N O P Q R S T U V W X Y Z

Hunx And His Punx - Lovers Lane chords

Highlighted       Show chord diagrams
-------------------------------------------------------------------------------
			     Lovers Lane - Hunx and His Punx
-------------------------------------------------------------------------------
Tabbed by: DPL
Email: nizibian@gmail.com

Tuning: Standard (EADGBe)


Intro: 
E C# A B 
E C# A B

Verse 1:
E
Do you ever get the feeling that you want to hold me?

C#
Well do it now, cause I want everyone to see

A
I wanna take you, take you way down

B
To my favorite place in town


Chorus:
E
Lover's lane (lover's lane)

	C#
I wanna go (I wanna go)
To lover's lane

	A
I wanna go (I wanna go)
To lover's lane

	B
I wanna go
To lover's lane


Verse 2:
E
I wanna run my fingers through your hair

C#
My whole life would pass and I wouldn't even care

A
Just gotta touch you, squeeze you, and make you mine

B
I wanna hold you to the end of time


Chorus:
E
Lover's lane (lover's lane)

	C#
I wanna go (I wanna go)
To lover's lane

	A
I wanna go (I wanna go)
To lover's lane

	B
I wanna go
To lover's lane


Verse 3:
E
And when he left, I was doin' fine

C#
I wish I woulda kissed him one last time

A
What happened next, no one would have ever known

B
My boy was killed, and now he's gone


E
And I can never go back

C#
No I'll never get to see him ever again

A
But I won't forget the time that we got to spend together

B
	On lover's lane

Chorus:
E
Lover's lane (lover's lane)

	C#
I wanna go (I wanna go)
To lover's lane

	A
I wanna go (I wanna go)
To lover's lane

	B
I wanna go
To lover's lane

E
Lover's lane (lover's lane)

	C#
I wanna go (I wanna go)
To lover's lane

	A
I wanna go (I wanna go)
To lover's lane

	B
I wanna go
To lover's lane


Guitar solo:
   E			     C#
e|---------------------------------------------------------------------------|
B|-11b(12)-(12)-(12)-(12)r11-------------------------------------------------|
G|---------------------------12-12b(13)-(13)-(13)(13)-(13)-(13)r12\----------|
D|---------------------------------------------------------------------------|
A|---------------------------------------------------------------------------|
E|---------------------------------------------------------------------------|
   A				  B		    E
e|------------------------------------------------------7-----7-------77\----|
B|-------9-------9----------9-9\-------------------/8h9---8h9---8h9p8--8\----|
G|-------9-------9----------9-9\--88-888888888888----------------------------|
D|-10h11---10h11---10h11p10-------99-999999999999----------------------------|
A|--------------------------------99-999999999999----------------------------|
E|---------------------------------------------------------------------------|
   C#			  A
e|--9-9--9-9-9-9-9-9-9-9-----------------------------------------------------|
B|--9-9--9-9-9-9-9-9-9-9----------9-------9---------9-99\--------------------|
G|-1010-1010101010101010----------9-------9---------9-99\--------------------|
D|-1111-1111111111111111-10-10h11---10h11---10h1110--------------------------|
A|---------------------------------------------------------------------------|
E|---------------------------------------------------------------------------|
   B 
e|----7---7---777---7--------------------------------------------------------|
B|-77-7-7-7-7-777-7-7--------------------------------------------------------|
G|-88-8-8-8-8-888-8-8-88-9---------------------------------------------------|
D|-99---9---9-----9----------------------------------------------------------|
A|---------------------------------------------------------------------------|
E|---------------------------------------------------------------------------|


Chorus:
E
Lover's lane (lover's lane)

	C#
I wanna go (I wanna go)
To lover's lane

	A
I wanna go (I wanna go)
To lover's lane

	B
I wanna go
To lover's lane

E
Lover's lane (lover's lane)

	C#
I wanna go (I wanna go)
To lover's lane

	A
I wanna go (I wanna go)
To lover's lane

	B	
I wanna go

	   E
To lover's lane

************************************

| /   slide up
| \   slide down
| h   hammer-on
| p   pull-off
| ~   vibrato
| +   harmonic
| x   Mute note
| b   Bend
| pb  Pre-bend
| br  Bend release
| pbr Pre-bend release
| brb Bend release bend

************************************
Tap to rate this tab
 
# A B C D E F G H I J K L M N O P Q R S T U V W X Y Z